Dillinger Four - Let Them Eat Thomas Paine Text Guitar Tab

Learn song with the online tabulature player
----------------------------------------------------------------------------
                   LET THEM EAT THOMAS PAINE - Dillinger Four
----------------------------------------------------------------------------

Tabbed by: Jake Hunt
Email: jakeh1020@yahoo.com
(this tab begins after the acoustic intro)

Intro/chorus:(.55s)
e|---------------------------------------------------------------------|
B|---------------------------------------------------------------------|
G|---------------------------------------------------------------------|
D|-------4/5--------4/5--7-77--4/----5-5555----------------------------|
A|--5-55-2/3---2-22-2/3--5-55--2/5---3-3333----------------------------|
E|--3-33-------0-00-------------/3-------------------------------------|

verse:
Rally round a cage...(1.05s)
e|---------------------------------------------------------------------|
B|---------------------------------------------------------------------|
G|---------------------------------------------------------------------|
D|--7-77777----------5-55555---------55555-------77777-----------------|
A|--5-55555--5-55555-3-33333-2-22222-33333-55555-55555-----------------|
E|-----------3-33333---------0-00000-------33333-----------------------|

Understand it's not gettin' better...(1.15s)
e|---------------------------------------------------------------------|
B|---------------------------------------------------------------------|
G|---------------------------------------------------------------------|
D|--------55555-------55555--77777-------555555------------------------|
A|--55555-33333-55555-33333--55555-22222-333333------------------------|
E|--33333-------33333--------------00000-------------------------------|

Don't tread on me...(1.25s)
e|---------------------------------------------------------------------|
B|---------------------------------------------------------------------|
G|---------------------------------------------------------------------|
D|-------------------4/5--------4/5--7-77--4/----5-5555----------------|
A|--------------5-55-2/3---2-22-2/3--5-55--2/5---3-3333----------------|
E|--------------3-33-------0-00-------------/3-------------------------|

But we act like we didn't know....(1.36s)
e|---------------------------------------------------------------------|
B|---------------------------------------------------------------------|
G|---------------------------------------------------------------------|
D|--7-77777----------5-55555---------55555-------77777-----------------|
A|--5-55555--5-55555-3-33333-2-22222-33333-55555-55555-----------------|
E|-----------3-33333---------0-00000-------33333-----------------------|

Tell me are the colors of the flag...(1.46s)
e|---------------------------------------------------------------------|
B|---------------------------------------------------------------------|
G|---------------------------------------------------------------------|
D|--------55555-------55555--77777-------555555------------------------|
A|--55555-33333-55555-33333--55555-22222-333333------------------------|
E|--33333-------33333--------------00000-------------------------------|

Don't tread on me...(1.56s)
e|---------------------------------------------------------------------|
B|---------------------------------------------------------------------|
G|---------------------------------------------------------------------|
D|-------------------4/5--------4/5--7-77--4/----5-5555----------------|
A|--------------5-55-2/3---2-22-2/3--5-55--2/5---3-3333----------------|
E|--------------3-33-------0-00-------------/3-------------------------|

One little, Two little...(2.07s)
e|---------------------------------------------------------------------|
B|---------------------------------------------------------------------|
G|---------------------------------------------------------------------|
D|--7777777------5------77777--55555-----------------------------------|
A|--5555555--555-3-555--55555--33333-55555-----------------------------|
E|-----------333---333---------------33335-----------------------------|

Rally round' a cage...(2.17s)
e|---------------------------------------------------------------------|
B|---------------------------------------------------------------------|
G|---------------------------------------------------------------------|
D|--5555------5555------5555-------77777-------------------------------|
A|--3333-5555-3333-5555-3333-5555--55555-------------------------------|
E|-------3333------3333------3333--------------------------------------|

With one side yanking...(2.28s)
e|---------------------------------------------------------------------|
B|---------------------------------------------------------------------|
G|---------------------------------------------------------------------|
D|-5---------5--7--9---------------------------------------------------|
A|-3-----2---3--5--7---------------------------------------------------|
E|-------0-------------------------------------------------------------|

But the other...(2.39s)
e|---------------------------------------------------------------------|
B|---------------------------------------------------------------------|
G|---------------------------------------------------------------------|
D|--5555------5555------5555-------77777-------------------------------|
A|--3333-5555-3333-5555-3333-5555--55555-------------------------------|
E|-------3333------3333------3333--------------------------------------|

This isn't me...(2.49s)palm mute
e|---------------------------------------------------------------------|
B|---------------------------------------------------------------------|
G|---------------------------------------------------------------------|
D|-99999--77777777-----------------------------------------------------|
A|-77777--55555555-----------------------------------------------------|
E|---------------------------------------------------------------------|

THIS ISN"T!...(2.54s)3x    end on
e|------------------------ ---------|
B|------------------------ ---------|
G|------------------------ ---------|
D|----------------5555---- ---------|
A|-2222-4444-5555-3333---- -5-------|
E|-0000-2222-3333--------- -3-------|