Dinosaur Jr. - Not The Same Text Guitar Tab

Learn song with the online tabulature player
hey first time ive wrote tab out hope its ok


>>>=arpeggio                               ]
                                           ]
-------------------------------0-------    ]
--------1------3-1-------------3-------    ]
-------------------------------0-------    ]
----2----------------------2-----------    ]
-0----------0--0-0--0--3---------------    ]
------------------------------------3-4    ]
                                           ]

-1----1     -1-|
-3----3 X12 -1-|
-2----2     -2-|
-0----0     -3-|
------      -3-|
------      ---|

>>>