Direc-T - Cool Without You Text Guitar Tab

Learn song with the online tabulature player
Cool without you, made by Di-rect

tabber: paul westerink
mail: paul11ajax@hotmail.com

standard tuning


Legenda
| p  pull off
| h  hammer on
| \  slide down


Chords
C  | x32010
G  | 320033
Am | x02210
F  | 133211
Dm | xx0231



INTRO clean sound "I lied to you"
|-----------------------|------------------|--------------------|--------------------------|
|------3--------3-------|-----3--------3---|----------------1---|--------------------------|
|--------0--------------|-------0--------0-|-----0h2------------|-----0h2--------0h2p0-----|
|----2--------2----2p0--|------------------|---2-----2----2---2-|---2-----2----2-------2p0-|
|--3--------3-----------|---2--------2-----|-0----------0-------|-0----------0-------------|
|-----------------------|-3--------3-------|--------------------|--------------------------|

      "I should have talked to you"
|-----------------------|------------------|--------------------|--------------------------|
|------3--------3-------|-----3--------3---|----------------1---|----------------1---------|
|--------0--------------|-------0--------0-|-----0h2------------|-----0h2------------------|
|----2--------2----2p0--|------------------|---2-----2----2---2-|---2-----2----2---2-------|
|--3--------3-----------|---2--------2-----|-0----------0-------|-0----------0-------------|
|-----------------------|-3--------3-------|--------------------|--------------------------|

       I know it's gonna break you"
|------1-0------1---|-----1-0----------------|------------------3---3---3---3---|
|-----------------3-|------------------------|-----1--------1-----1---1---1---1-|
|----2--------2-----|---2--------2-0h2p0-----|-------0--------0-----------------|
|--0--------0-------|-0--------0---------2p0-|---2--------2---------------------|
|-------------------|------------------------|-3--------3-----------------------|
|-------------------|------------------------|----------------------------------|


C       G          Am
I move out, I walk out on you
F                               C
And nothing's gonna change, so now
        G          Am 
I move out, I run out on you
F                                   G 
'Cause life is pretty cool without you 
              
Cool without you 


|---------------------|--------------|
|------3--------3-----|-----3--------|
|--------0------------|-------0------|
|----2--------2---2p0-|--------------|
|--3--------3---------|---2--------2-|
|---------------------|-3--------3---|


VERSE 1
|---------------------|
|-----5--6--5---5-----|
|--7----------7-------|
|---------------------|
|---------------------|
|---------------------|x12 




PLAY THIS AT THE SAME TIME WITH VERSE 1 :

C                     G
Don't wanna lie to you 
                 Am
No I can't fool your pretty face, so beautiful
C                                G
Why should I change my mind a thousand times
            Am                 
We can't go on, no we can't go on 


Dm
I don't wanna hurt you 
                          F
I don't wanna break you down 
                            
But you've gotta believe me
                C 
It's over girl now 


        G          Am
I move out, I walk out on you
F                           C
Nothing's gonna change, so now
        G          Am  
I move out, I run out on you
F                                   G 
'Cause life is pretty cool without you 


                  F
I'm cool without you
              G
Cool without you 
                  F
I'm cool without you
              G 
Cool without you 

REPEAT VERSE 1:
|---------------------|
|-----5--6--5---5-----|
|--7----------7-------|
|---------------------|
|---------------------|
|---------------------|x2 times only
 


PLAY THIS AT THE SAME TIME WITH VERSE 1:

    C          G          Am
So now I move out, I walk out on you
  F                         C
Nothing's gonna change, so now
        G          Am 
I move out, I run out on you
F                                   C   G   Am   F   
'Cause life is pretty cool without you

end with:
|----3------------|
|----3------------|
|----4------------|
|----5------------|
|----5------------|
|----3\-----------|
Hit this chord few times then slide down

Cool without you



thats it! 

if you like it check out my profile for other tabs.
ooh, dont forget to rate