Direc-T - Dont Kill Me Tonight Text Guitar Tab

Learn song with the online tabulature player
1st guitar

E|--------------7---------------||
B|-----7-8-8-10---8-7-7-8-10----||
G|-7-9-----------------------9--||   2x
D|------------------------------||
A|------------------------------||
E|------------------------------||

      E A D G B E
Em7   0 2 2 0 3 3
G/B   0 2 0 0 3 2
Cadd9 0 3 2 0 3 0
    
2nd guitar

   Em7         G/B       Cadd9      Cadd9
E|-----3----|-----2----|-----0----|-----0----||
B|---3---3--|---3---3--|---3---3--|---3---3--||
G|--0-0-0-0-|--0-0-0-0-|--0-0-0-0-|--0-0-0-0-||   2x
D|-2--------|----------|----------|----------||
A|----------|-2--------|-3--------|-3--------||
E|----------|----------|----------|----------||