Director - Reconnect Text Guitar Tab

Learn song with the online tabulature player
Band: Director
Song: Reconnect
Album: We Thrive On Big Cities


I'm not sure if B(x244xx) in the Main Riff changes to Bm(x544xx) or stays as (244)
If you're playing with someone else it won't matter
If you're playing alone, it sounds better as shown

Most of the song is just the Main Riff clear or muted



Main Riff
---------
    B               Bm              G               D       F#m
e|--------------------------------------------------------------------|
B|----------------------------------3333333333333333------------------| Electric
G|--44444444444444444444444444444444----------------7777777766666666--| Guitar
D|--4444444444444444444444444444444455555555555555557777777777777777--|
A|--2222222222222244555555555555555555555555555555555555555544444444--|
E|----------------------------------3333333333333333------------------|
 |
 |
G|--------------------------------------------------------------------|
D|--------------------------------------------------------------------| Bass
A|--22222222222222445555555555555555----------------5555555544444444--|
E|----------------------------------3333333333333333------------------|



Bridge
------

e|-----------------------------------------------|
B|------------7----------------------------------|
G|--4---/7----7-----7--6-------------------------|
D|--4---------5----------------------------------|
A|-----------------5--4---2-----2---5---5--4-----|
E|-----------------------------------------------|

e|------------------------------------|
B|--*muted*---------------------------|
G|------------------------------------|
D|--44444444444444447777777777777777--|
A|--22222222222222225555555544444444--|
E|------------------------------------|



Outro
-----

e|--------------------------------|
B|--------------------------------|
G|--4-/-7-/-11-/-12/13/14/17/16---|
D|--------------------------------|
A|--------------------------------|
E|--------------------------------|



Tabbed by NintEndO