Dirty Dancing - Hey Baby Text Guitar Tab

Learn song with the online tabulature player
--------2-0----------------------------|
-3h5--------2-5--2------------2-5-2----|
--------------------2-2-----2----------|
------------------------------------2--|
---------------------------------------|
---------------------------------------|

(listen to rhythm on this:)
---------------------------------------|
---------------------------------------|
-2-2---2--2---2------------------------|
-----2------2--------------------------|
---------------------------------------|
---------------------------------------|

(second time:)

-------2----2-5-----------------------|
--3h5----5----------------------------|
--------------------------------------|
--------------------------------------|
--------------------------------------|
--------------------------------------|

-----2-0-------------------------------|
---------2-2-5--2------------2-5-2-----|
--------------------2-2----2-----------|
------------------------------------2--|
---------------------------------------|
---------------------------------------|

sounds right
enjoy!