Dirty Heads - Believe Text Guitar Tab

Learn song with the online tabulature player
----------------------------------------------------------------------------
                                                Believe - The Dirty Heads

Tabbed by: chris7xx


Tuning:EADGBE

 Intro:
e|---------------------------------------------------------------------------|
B|---------------------------------------------------------------------------|
G|--------------------------------------------------5----------7---7h9p7---7-|
D|-------------5---5---5h7p5-----------------5/7---------7/9---------------9-|
A|-------5h7---------------------7-------------------------------------------|
E|---3--------------------------------5-5------------------------------------|

e|---------------------------------------------------------------------------|
B|---------------------------------------------------------------------------|
G|------------------------------------------------7---7/9\7------------------|
D|-------------5--5---5h7p7------------------7/9------7/9\7------------------|
A|-------5h7----------------------7------------------------------------------|
E|---3---------------------------------5-5-----------------------------------|

  Chords For The whole song. Rhythm is easy to figure out. ENJOY!!

      G       C     D
e|----3-------------------------------------------------------------------------|
B|----3-------5------7----------------------------------------------------------|
G|----4-------5------7----------------------------------------------------------|
D|----5-------5------7----------------------------------------------------------|
A|----5-------3------5----------------------------------------------------------|
E|----3-------------------------------------------------------------------------|