Dirty Pretty Things - Enemy Text Guitar Tab

Learn song with the online tabulature player
Tabbed by Jordan McMahon
'Took me bleeding ages!!!'
please rate
eMail with any queries (jordanmcmahon@hotmail.co.uk)
ENJOY!!!

Intro- 

  So  Far   Dishonsest as the day is long im sorry so ill go now, but
E|-----3~---------------3---------/7--5~-------5--7--5/-------3~----|
B|-----------------0--------0--1------5~-------5~-5--5/-------------|
G|-0---------0-3----------------------5~-------5~-5--5/----0--------|
D|------------------------------------------------------------------|
A|------------------------------------------------------------------|
E|------------------------------------------------------------------|
  I love you so   i wont be long         and the spectors in
E|-----------3----------/7---5~------x------------------------|
B|-------0--------0--1-------5~------x------------------------|
G|-0-3-----------------------5~------x------------------------|
D|-----------------------------------x------------12-12-12-12-|
A|-----------------------------------x------------10-10-10-10-|
E|-----------------------------------x------------------------|
the masonry remind us of the things that might have been
E|------------------------------------------------------|
B|------------------------------------------------------|
G|-------------------12-12-12-12-12-12-12-12-11-10-9~~~-|
D|-12-12-12-12-12-12-12-12-12-12-12-12-12-12-11-10-9~~~-|
A|-10-10-10-10-10-10-10-10-10-10-10-10-10-10--9--8-7~~~-|
E|------------------------------------------------------|

Main Riff
Guitar 1 Carl
E|---7---7---7---7---7---7---7---7---7---7---7---7---7---7---7---7-|
B|-5---5---5---5---5---5---5---5---5---5---5---5---5---5---5---5---|
G|-----------------------------------------------------------------|
D|-----------------------------------------------------------------|
A|-----------------------------------------------------------------|
E|-----------------------------------------------------------------|
Guitar 2 Antony
E|-------------------------------------------------------------12-12|
B|-------------------------------------------------------------12-12|
G|-----------------------------9/12-13--9/12-13--9/12-13--9/12----12|
D|------------------------------------------------------------------|
A|------------------------------------------------------------------|
E|------------------------------------------------------------------|
Guitar 1- Both guitars
E|------4-|
B|------5-|
G|------6-| x4
D|------6-|
A|-4-4----|
E|-4-4----|

Repeat Above

1st verse- Bass with some guitar picking mostly between E, C#M and B

"Isn’t it time you washed your face 
It looks like a burnt out fireplace 
And I am awash with memories 
And worrying complexities"

Pre chorus- Carl

"In time.. you find it very scary... and its hard to live respectfully"
E|---7---7---7---7---7---7---7---7---7---7---7---7---7---7---7---7-|
B|-5---5---5---5---5---5---5---5---5---5---5---5---5---5---5---5---|
G|-----------------------------------------------------------------|
D|-----------------------------------------------------------------|
A|-----------------------------------------------------------------|
E|-----------------------------------------------------------------|

Meanwhile Anthony bashes out these chords

"In time.. you find it very scary... and its hard to live respectfully"
      E     E     E          C#M   C#M   C#M   B B B B B B
E|---------------------------4-4---4-4---4-4---2-2-2-2-2-2---------|
B|---9-9---9-9---9-9---9-9---5-5---5-5---5-5---4-4-4-4-4-4---------|
G|---9-9---9-9---9-9---9-9---6-6---6-6---6-6---4-4-4-4-4-4---------|
D|---9-9---9-9---9-9---9-9---6-6---6-6---6-6---4-4-4-4-4-4---------|
A|---7-7---7-7---7-7---7-7---4-4---4-4---4-4-----------------------|
E|---------------------------4-4---4-4---4-4-----------------------|

Chorus- Play chords very fast
 The enenmy as i know it      Its right...     Head..
       E     E     E               C#M         B   B
E|----------------------------4--4--4--4--4----2---2---------------|
B|---99999-99999-99999-99999--5--5--5--5--5----4---4---------------|
G|---99999-99999-99999-99999--6--6--6--6--6----4---4---------------|
D|---99999-99999-99999-99999--6--6--6--6--6----4---4---------------|
A|---77777-77777-77777-77777--4--4--4--4--4------------------------|
E|----------------------------4--4--4--4--4------------------------|

Repeat

Theres some chords played of which i am not sure and this little riff:
B|---10h12~5---|

The verse is the same as before with just bass and drums with the occasional Carl pick.

"Everyones still all over the place 
And not to humble to embrace 
And oh my gosh the memories 
But your arrogance perplexes me"

Then Pre chorus:

"Now this time. I shoulnt be so lary. Just try to live respectfully" 
E|---7---7---7---7---7---7---7---7---7---7---7---7---7---7---7---7-|
B|-5---5---5---5---5---5---5---5---5---5---5---5---5---5---5---5---|
G|-----------------------------------------------------------------|
D|-----------------------------------------------------------------|
A|-----------------------------------------------------------------|
E|-----------------------------------------------------------------|

"Now this time. I shoulnt be so lary. Just try to live respectfully" 
      E     E     E          C#M   C#M   C#M   B B B B B B
E|---------------------------4-4---4-4---4-4---2-2-2-2-2-2---------|
B|---9-9---9-9---9-9---9-9---5-5---5-5---5-5---4-4-4-4-4-4---------|
G|---9-9---9-9---9-9---9-9---6-6---6-6---6-6---4-4-4-4-4-4---------|
D|---9-9---9-9---9-9---9-9---6-6---6-6---6-6---4-4-4-4-4-4---------|
A|---7-7---7-7---7-7---7-7---4-4---4-4---4-4-----------------------|
E|---------------------------4-4---4-4---4-4-----------------------|

Chorus- Play chords very fast
 The enenmy as i know it      Its right...     Head..
       E     E     E               C#M         B   B
E|----------------------------4--4--4--4--4----2---2---------------|
B|---99999-99999-99999-99999--5--5--5--5--5----4---4---------------|
G|---99999-99999-99999-99999--6--6--6--6--6----4---4---------------|
D|---99999-99999-99999-99999--6--6--6--6--6----4---4---------------|
A|---77777-77777-77777-77777--4--4--4--4--4------------------------|
E|----------------------------4--4--4--4--4------------------------|

Repeat

Bridge:
"so you give it a shot now"
E|----------------------------2~4-|
B|---9---9---9---9---9--------4~5-|
G|---9---9---9---9---9--------4~6-|
D|---9---9---9---9---9--------4~6-|
A|---7---7---7---7---7------------|
E|--------------------------------|

"And you did a little turn now"
E|----------------------------2~4-|
B|---9---9---9---9---9--------4~5-|
G|---9---9---9---9---9--------4~6-|
D|---9---9---9---9---9--------4~6-|
A|---7---7---7---7---7------------|
E|--------------------------------|

"Are you going to give it up for?"
E|----------------------------2~4-|
B|---9---9---9---9---9--------4~5-|
G|---9---9---9---9---9--------4~6-|
D|---9---9---9---9---9--------4~6-|
A|---7---7---7---7---7------------|
E|--------------------------------|

"And the spectres in the masonary remind us of the things that might have been"
E|------------------------------------------------------|
B|------------------------------------------------------|
G|-------------------12-12-12-12-12-12-12-12-11-10-9~~~-|
D|-12-12-12-12-12-12-12-12-12-12-12-12-12-12-11-10-9~~~-|
A|-10-10-10-10-10-10-10-10-10-10-10-10-10-10--9--8-7~~~-|
E|------------------------------------------------------|


Theres an interlude of which im not sure you may be able to guess the riff from the ending below:

Pre chorus: Carl
E|-12-12-12-12-12-12-12-12-12-------------------------|
B|------------------------------12-10-9-7-5b-5b-5b-5b-|

Chorus- Play chords very fast
 The enenmy as i know it      Its right...     Head..
       E     E     E               C#M         B   B
E|----------------------------4--4--4--4--4----2---2---------------|
B|---99999-99999-99999-99999--5--5--5--5--5----4---4---------------|
G|---99999-99999-99999-99999--6--6--6--6--6----4---4---------------|
D|---99999-99999-99999-99999--6--6--6--6--6----4---4---------------|
A|---77777-77777-77777-77777--4--4--4--4--4------------------------|
E|----------------------------4--4--4--4--4------------------------|

Play repeated until end of song!

Enjoy
And please rate...

Jordan McMahon
(My first tab)I will add the riffs and interludes once i've realised them!

LIBERTINE FOREVER!