Dirty Pretty Things - Faultlines Text Guitar Tab

Learn song with the online tabulature player
Dirty Pretty Things
        Faultlines
Barat/Rossomando/Hammond/Powell

Guitar 1: Anthony Rossomando (Stan) Lead Acoustic
Guitar 2: Anthony Rossomando (ALDE) Lead Electric

Intro:

Faded background guitar:

e-5-5-5--5-5-4-4-
B-5-5-5--5-5-4-4-
G-6-6-6--6-6-5-5-
D-7-7-7--7-7-6-6-
A-7-7-7--7-7-5-6-
E-5-5-5--5-5-4-4-

Stan:

e----0--0-0-------0------4--4----5---7-
B----0--0-0-------0------4--4----5---7-
G----1--1-1-------1------5--5----6---8-
D-2--2--2-2--2----2---6--6--6--7---9---
A-2----------2--------6-----6--7---9---
E-0----------0--------4-----4--5---7---

     *                                   *guitar 2 feedback temporarily
e----0--0-0-------0------4--4----5---7-
B----0--0-0-------0------4--4----5---7-
G----1--1-1-------1------5--5----6---8-
D-2--2--2-2--2----2---6--6--6--7---9---
A-2----------2--------6-----6--7---9---
E-0----------0--------4-----4--5---7---

Verse 1:

Stan:
 The Fights...             me over...                       I...      bothered.
e----0--0-0-------0------4--4----5---7-----0--0-0-------0------4--4----5---7-
B----0--0-0-------0------4--4----5---7-----0--0-0-------0------4--4----5---7-
G----1--1-1-------1------5--5----6---8-----1--1-1-------1------5--5----6---8-
D-2--2--2-2--2----2---6--6--6--7---9----2--2--2-2--2----2---6--6--6--7---9---
A-2----------2--------6-----6--7---9----2----------2--------6-----6--7---9---
E-0----------0--------4-----4--5---7----0----------0--------4-----4--5---7---
*All this...                    nothing     oh oh.
e-0-0-0--0--0--0-0-0--0--0--0--7-7-7--7--7--7-7-7--7--7-
B-2-2-2--2--2--1-1-1--1--1--1--9-9-9--9--9--7-7-7--7--7-
G-2-2-2--2--2--2-2-2--2--2--2--9-9-9--9--9--8-8-8--8--8-
D-2-2-2--2--2--2-2-2--2--2--2--9-9-9--9--9--9-9-9--9--9-
A-0-0-0--0--0--0-0-0--0--0--0--7-7-7--7--7--9-9-9--9--9-
E-------------------------------------------7-7-7--7--7-

ALDE:
*
e------------------------------------------------------
B-----8------------6---------------9-------------------
G--------9-------------7--------------9-----8~~~~~~~~~-
D----------9--------------7------9------9---9~~~~~~~~~-
A---9------------7-------------7------------9~~~~~~~~~-
E-7------------5----------------------------7~~~~~~~~~-

Chorus:

Stan:
* Faultlines...      both sides...       change things...
e-7-7--7-7-7--7-7-7--5-5--5-5-5--5-5-5--7-7--7-7-7--7-7-7--4--4--5-
B-7-7--7-7-7--7-7-7--5-5--5-5-5--5-5-5--7-7--7-7-7--7-7-7--4--4--5-
G-8-8--8-8-8--8-8-8--6-6--6-6-6--6-6-6--8-8--8-8-8--8-8-8--5--5--6-
D-9-9--9-9-9--9-9-9--7-7--7-7-7--7-7-7--9-9--9-9-9--9-9-9--6--6--7-
A-9-9--9-9-9--9-9-9--7-7--7-7-7--7-7-7--9-9--9-9-9--9-9-9--6--6--7-
E-7-7--7-7-7--7-7-7--5-5--5-5-5--5-5-5--7-7--7-7-7--7-7-7--4--4--5-
you know you wanna run away.
e-5-5--4-4--2-2--0-
B-5-5--4-4--2-2--0-
G-6-6--5-5--3-3--1-
D-7-7--6-6--4-4--2-
A-7-7--6-6--4-4--2-
E-5-5--4-4--2-2--0-

ALDE:
*
e------------------------------------------------------------------
B----------------------------10------------------------------------
G-----------------------9~~-----9--------------------8-----8-------
D-----9~~~~---------7-------------7---------9~~~--------9-----9--7-
A-9-------------------------------------9--------------------------
E------------------------------------------------------------------

Post-Chorus:

Stan:
*
e----0--0-0-------0------4--4----5---7-----0--0-0-------0------4--4----5---7-
B----0--0-0-------0------4--4----5---7-----0--0-0-------0------4--4----5---7-
G----1--1-1-------1------5--5----6---8-----1--1-1-------1------5--5----6---8-
D-2--2--2-2--2----2---6--6--6--7---9----2--2--2-2--2----2---6--6--6--7---9---
A-2----------2--------6-----6--7---9----2----------2--------6-----6--7---9---
E-0----------0--------4-----4--5---7----0----------0--------4-----4--5---7---

ALDE:
*
e----------------------------------------------------------------------------
B------9----------------9--12-----12---------9----------------9--12-----12---
G-4---------4-3-4-4--5--------9-9----9--4---------4-3-4-4--5--------9-9----9-
D----------------------------------------------------------------------------
A----------------------------------------------------------------------------
E----------------------------------------------------------------------------

e-0~~-
B-0~~-
G-1~~-
D-2~~-
A-2~~-
E-0-

Verse 2:

Stan:
 We shared...           between...          long lost...       lost ourselves...
e----0--0-0-------0------4--4----5---7-----0--0-0-------0------4--4----5---7-
B----0--0-0-------0------4--4----5---7-----0--0-0-------0------4--4----5---7-
G----1--1-1-------1------5--5----6---8-----1--1-1-------1------5--5----6---8-
D-2--2--2-2--2----2---6--6--6--7---9----2--2--2-2--2----2---6--6--6--7---9---
A-2----------2--------6-----6--7---9----2----------2--------6-----6--7---9---
E-0----------0--------4-----4--5---7----0----------0--------4-----4--5---7---
* all this waiting              nothing        oh oh.
e-0-0-0--0--0--0-0-0--0--0--0--7-7-7--7--7--7-7-7--7--7-
B-2-2-2--2--2--1-1-1--1--1--1--9-9-9--9--9--7-7-7--7--7-
G-2-2-2--2--2--2-2-2--2--2--2--9-9-9--9--9--8-8-8--8--8-
D-2-2-2--2--2--2-2-2--2--2--2--9-9-9--9--9--9-9-9--9--9-
A-0-0-0--0--0--0-0-0--0--0--0--7-7-7--7--7--9-9-9--9--9-
E-------------------------------------------7-7-7--7--7-

ALDE:
*
e------------------------------------------------------
B-----8------------6---------------9-------------------
G--------9-------------7--------------9-----8~~~~~~~~~-
D----------9--------------7------9------9---9~~~~~~~~~-
A---9------------7-------------7------------9~~~~~~~~~-
E-7------------5----------------------------7~~~~~~~~~-

Chorus:

Stan:
* Faultlines...      both sides...       change things...
e-7-7--7-7-7--7-7-7--5-5--5-5-5--5-5-5--7-7--7-7-7--7-7-7--4--4--5-
B-7-7--7-7-7--7-7-7--5-5--5-5-5--5-5-5--7-7--7-7-7--7-7-7--4--4--5-
G-8-8--8-8-8--8-8-8--6-6--6-6-6--6-6-6--8-8--8-8-8--8-8-8--5--5--6-
D-9-9--9-9-9--9-9-9--7-7--7-7-7--7-7-7--9-9--9-9-9--9-9-9--6--6--7-
A-9-9--9-9-9--9-9-9--7-7--7-7-7--7-7-7--9-9--9-9-9--9-9-9--6--6--7-
E-7-7--7-7-7--7-7-7--5-5--5-5-5--5-5-5--7-7--7-7-7--7-7-7--4--4--5-
you know you wanna jump,
e-5-5--4-4--2-2--0-
B-5-5--4-4--2-2--0-
G-6-6--5-5--3-3--1-
D-7-7--6-6--4-4--2-
A-7-7--6-6--4-4--2-
E-5-5--4-4--2-2--0-

ALDE:
*
e------------------------------------------------------------------
B----------------------------10------------------------------------
G-----------------------9~~-----9--------------------8-----8-------
D-----9~~~~---------7-------------7---------9~~~--------9-----9--7-
A-9-------------------------------------9--------------------------
E------------------------------------------------------------------

Bridge:

Stan:
* in to the...                     fell down dead...
e-4--4-4--4--4-4---4--4-4--4-4-4---5--5-5--5--5-5---5--5-5--5-5-5-
B-5--5-5--5--5-5---5--5-5--5-5-5---5--5-5--5--5-5---5--5-5--5-5-5-
G-6--6-6--6--6-6---6--6-6--6-6-6---6--6-6--6--6-6---6--6-6--6-6-6-
D-6--6-6--6--6-6---6--6-6--6-6-6---7--7-7--7--7-7---7--7-7--7-7-7-
A-4--4-4--4--4-4---4--4-4--4-4-4---7--7-7--7--7-7---7--7-7--7-7-7-
E----------------------------------5--5-5--5--5-5---5--5-5--5-5-5-
*   I got 20...                    I feel like...
e-4--4-4--4--4-4---4--4-4--4-4-4---5--5-5--5--5-5---5--5-5--5-5-5-
B-5--5-5--5--5-5---5--5-5--5-5-5---5--5-5--5--5-5---5--5-5--5-5-5-
G-6--6-6--6--6-6---6--6-6--6-6-6---6--6-6--6--6-6---6--6-6--6-6-6-
D-6--6-6--6--6-6---6--6-6--6-6-6---7--7-7--7--7-7---7--7-7--7-7-7-
A-4--4-4--4--4-4---4--4-4--4-4-4---7--7-7--7--7-7---7--7-7--7-7-7-
E----------------------------------5--5-5--5--5-5---5--5-5--5-5-5-
  what does the...           you know you wanna run away.
e-4-4-4-4-4-4-4-4-4-4-4-4----5-5--4-4--2-2--0-
B-4-4-4-4-4-4-4-4-4-4-4-4----5-5--4-4--2-2--0-
G-5-5-5-5-5-5-5-5-5-5-5-5----6-6--5-5--3-3--1-
D-6-6-6-6-6-6-6-6-6-6-6-6----7-7--6-6--4-4--2-
A-6-6-6-6-6-6-6-6-6-6-6-6----7-7--6-6--4-4--2-
E-4-4-4-4-4-4-4-4-4-4-4-4----5-5--4-4--2-2--0-

ALDE:
*
e----------------------------
B----------------------------
G-6--4h6-----4h6------4h6--9-
D----------------------------
A----------------------------
E----------------------------
*
e----------------------------
B----------------------------
G-6--4h6-----4h6------4h6--9-
D----------------------------
A----------------------------
E----------------------------

Solo:

Stan:

e----0--0-0-------0------4--4----5---7-
B----0--0-0-------0------4--4----5---7-
G----1--1-1-------1------5--5----6---8-
D-2--2--2-2--2----2---6--6--6--7---9---
A-2----------2--------6-----6--7---9---
E-0----------0--------4-----4--5---7---


e----0--0-0-------0------4--4----5---7-
B----0--0-0-------0------4--4----5---7-
G----1--1-1-------1------5--5----6---8-
D-2--2--2-2--2----2---6--6--6--7---9---
A-2----------2--------6-----6--7---9---
E-0----------0--------4-----4--5---7---

e-5-5--4-4--2-2--0-
B-5-5--4-4--2-2--0-
G-6-6--5-5--3-3--1-
D-7-7--6-6--4-4--2-
A-7-7--6-6--4-4--2-
E-5-5--4-4--2-2--0-

ALDE:

e-------------------------------------
B-------------------------------------
G-12--12-12-14--9--7-----7-7--9-7-----
D---------------------9-----------6-8-
A-------------------------------------
E-------------------------------------

e-------------------------------------
B-------------------------------------
G-12--12-12-14--9--7-----7-7--9-7-----
D---------------------9-----------6-8-
A-------------------------------------
E-------------------------------------

e-------------------
B-------------------
G-------------------
D-9-9--8-8--6-6-4-4-
A-------------------
E-------------------

Chorus:

Stan:
* Faultlines...      from pilgrims...   all fine...
e-7-7--7-7-7--7-7-7--5-5--5-5-5--5-5-5--7-7--7-7-7--7-7-7--4--4--5-
B-7-7--7-7-7--7-7-7--5-5--5-5-5--5-5-5--7-7--7-7-7--7-7-7--4--4--5-
G-8-8--8-8-8--8-8-8--6-6--6-6-6--6-6-6--8-8--8-8-8--8-8-8--5--5--6-
D-9-9--9-9-9--9-9-9--7-7--7-7-7--7-7-7--9-9--9-9-9--9-9-9--6--6--7-
A-9-9--9-9-9--9-9-9--7-7--7-7-7--7-7-7--9-9--9-9-9--9-9-9--6--6--7-
E-7-7--7-7-7--7-7-7--5-5--5-5-5--5-5-5--7-7--7-7-7--7-7-7--4--4--5-
you know you wanna run away.
e-5-5--4-4--2-2-
B-5-5--4-4--2-2-
G-6-6--5-5--3-3-
D-7-7--6-6--4-4-
A-7-7--6-6--4-4-
E-5-5--4-4--2-2-

ALDE:
*
e------------------------------------------------------------------
B----------------------------10------------------------------------
G-----------------------9~~-----9--------------------8-----8-------
D-----9~~~~---------7-------------7---------9~~~--------9-----9--7-
A-9-------------------------------------9--------------------------
E------------------------------------------------------------------

Outro: Feedback from Guitar 2