Dirty Pretty Things - Tired Of England Text Guitar Tab

Learn song with the online tabulature player
Love this song, I like the bass part as well, took me a while to figure it out.

Verse
G|-----------------------------------------------------------------------|
D|-----------------------------------------------------------------------|
A|-------4-66-6-44--------4-66-6-44--22-2-2-2-55-5-5-5-22-2-2-2-55-5--777|
E|22-222-----------22-222------------------------------------------------|

Pre-Chorus - Blues, greys, greens. browns.....
G|--------------------|
D|--------------------|
A|7-77--7-77--77777777|
E|--------------------|

Chorus
G|------------------------------------------------------|
D|---------7\--------------------------7\---------------|
A|-------5--------7-77-555542--------5-------77-77-4~---|
E|5-55-7------5-57------------5-55-7-----5-57-----------|

Bridge
G|-----------------------------------------|
D|-----------------------------------------|
A|5-55--2-22--5-55--2-22-3-4444444444444444|
E|-----------------------------------------|

G|----------------------------------------------------------------|
D|--88------66------88------66------88------66------88------66----|
A|99--99--77--77--99--99--77--77--99--99--77--77--99--99--77--77--|
E|------99------99------99------99------99------99------99------99|

G|-------------------------------------------------------------|
D|-------------------------------------------------------------|
A|-7-9999999977777-7-9999999977777-7-9999999977777-7-999999997\|
E|9-9-------------9-9-------------9-9-------------9-9----------|

Outro
G|---------------------------------------------------------------|
D|-------899-1198--------899-1198--------899-1198--------899-1198|
A|99--7-----------99--7-----------99--7-----------99--7----------|
E|---9-9-------------9-9-------------9-9-------------9-9---------|

G|--------------------------|
D|--------------------------|
A|55555-55555-44444-3bend---|
E|--------------------------|