Dirty Pretty Things - You Fucking Love It Text Guitar Tab

Learn song with the online tabulature player
Song: You Fucking Love It
Band: Dirty Pretty Things
Abum: Waterloo To Anywhere
Tabbed By: Scott Reid


Tuning: EADG

Intro: (no bass)

Verse:
|-----------------------------|
|-----------------------------|
|--22-555-22-555-22-555-------|
|-----------------------55555-| x2

|------------------------------|
|------------------------------|
|-22-555-22-----22-555---------|
|-----------555--------555555--|

|-----------------------------|
|-----------------------------|
|--22-555-22-555-22-555-------|
|-----------------------55555-|

Chorus: "You put your money in..."
|-----------------|
|-----------------|
|-----------------|x2
|-77-5555-33-2222-|

"You fucking love it..."
|--------------|
|--------------|
|--------------|
|-57575--57575-|

"Back on your feet again..."
|-----------------|
|-----------------|
|-----------------|x2
|-77-5555-33-2222-|

"You fucking love it, yeah, yeah, yeah!"
|-------------|
|-------------|
|--------5555-|
|-57575-------|

***rest***

Verse 2:
|-----------------------------|
|-----------------------------|
|--22-555-22-555-22-555-------|
|-----------------------55555-| x2

Chorus: "You put your money in..."
|-----------------|
|-----------------|
|-----------------|x2
|-77-5555-33-2222-|

"You fucking love it..."
|--------------|
|--------------|
|--------------|
|-57575--57575-|

"Back on your feet again..."
|-----------------|
|-----------------|
|-----------------|x2
|-77-5555-33-2222-|

"You fucking love it, yeah, yeah, yeah!"
|-------------|
|-------------|
|--------5555-|
|-57575-------|

Bridge:
|------------------------------------------------------------|
|------------------------------------------------------------|
|------------------------------------------------------------|
|7-------5------7-----5------5--7----5--7---53-53-53-53-53-5-|

Solo:
|-----------------------------|
|-----------------------------|
|--22-555-22-555-22-555-------|
|-----------------------55555-|

|--------------------------------------|
|----------------------------------6---|
|--22-555-22-555-22-555---------57---8-|
|-----------------------5555-46--------|

|----------------------------------------|
|-22-555-22-555-22-555-------10-11-8-----|
|-----------------------4-8-----------8--|
|----------------------------------------|

|--------------------------------------------|
|-22-555-22-555-22-555-----------------------|
|----------------------5555///////1616171718-|
|--------------------------------------------|

Chorus: "You put your money in..."
|-----------------|
|-----------------|
|-----------------|x2
|-77-5555-33-2222-|

"You fucking love it..."
|--------------|
|--------------|
|--------------|
|-57575--57575-|

"Back on your feet again..."
|-----------------|
|-----------------|
|-----------------|x2
|-77-5555-33-2222-|

"You fucking love it, yeah, yeah, yeah!"
|-------------|
|-------------|
|--------5555-|
|-57575-------|

Outro: "When you boil it down..."
|--------------------------------------------------------------|
|--------------------------------------------------------------|
|--------------------------------------------------------------|
|7-------5------7-----5------5--7----5--7---53-53-53-53-53-5-7~|

End
|-------|
|-------|
|-------|
|-5\\\--|