Disciple - Invisible Text Guitar Tab

Learn song with the online tabulature player
Song: Invisible
Band: Disciple
Album: Horseshoes and Handgrenades (2010)
Tabbed by: JRedDisciple
Drop C (C,G,C,F,A,D)

(Guitar 1)
Intro
D -17(stand alone)-----------------------------|
A ---------------------------------------------|
F ----------10-7-9-7-10-7--------10----9-9b-7--|
C -------------------------10-10----10---------|
G ---------------------------------------------|
C ---------------------------------------------|

D --------------------------------------|
A -------------------------------8/10---|
F --10-7-9-7-10-7---------10------------|
C ------------------10-10----10---------|
G --------------------------------------|
C --------------------------------------|

(Guitar 2)
Intro
D -----------------|
A -----------------|
F ----------5------|
C -8--0--3--5------|   2x
G -8--0--3--3------|
C -8--0--3---------|

Verse (Guitar 2, Clean)
D -------------------------|
A -------------------------|
F -------------------------|
C --0-3-8-5-0-3-10-9-8-5---|
G --0-3-8-5-0-3-10-9-8-5---|
C --0-3-8-5-0-3-10-9-8-5---|
(You’ve got my attention, there’s no need...)

Chorus (Both Guitars)
D ---------------------------|
A ---------------------------|
F -----------5-----------5---|
C --8--0--3--5--5--3--0--5---|       2x
G --8--0--3--3--5--3--0--3---|
C --8--0--3-----5--3--0------|
(Wish you were someone else...)

Intro


Verse (Guitar 2, Clean)
D -------------------------|
A -------------------------|
F -------------------------|
C --0-3-8-5-0-3-10-9-8-5---|
G --0-3-8-5-0-3-10-9-8-5---|
C --0-3-8-5-0-3-10-9-8-5---|

Chorus (Both Guitars)
D ---------------------------|
A ---------------------------|
F -----------5-----------5---|
C --8--0--3--5--5--3--0--5---|       2x
G --8--0--3--3--5--3--0--3---|
C --8--0--3-----5--3--0------|

Bridge (Both Guitars)
D --------------------------------------------|
A --------------------------------------------|
F ----------------------------------5--5--5---|    4x
C -0--0--0--3/5/7--0--3/5--3--3--3--5--5--5---|
G -0--0--0--3/5/7--0--3/5--3--3--3--3--3--3---|
C -0--0--0--3/5/7--0--3/5--3--3--3------------|
(Your not, your not, invisible...)

Quiet Interlude  (Guitar 1)
D ----------------------------|
A -------9--11-10-------------|
F --7-9---8-------10-9--------|
C ----------------------------|
G ----------------------------|
C ----------------------------|
(Your not invisible...)

Chorus again

Out on Intro

That’s basically it....
I didn’t know if anyone wanted that little build at the end, with the snare and the 
guitar, the actual ending, so it’s not there, it’s simple though and you wouldn’t have 
figuring it out...

Please rate this tab and tell me how I am doing!!
pce