Disciple - Lay My Burdens Text Guitar Tab

Learn song with the online tabulature player
Me and my guitar teacher figured this thing out in 30min. its in Drop D and sorta simple
well for me anyways. there's 2 to 3 guitars in the recording but i'll just put the lead
down and the chords. have fun rockin w/ Disciple!

Song: Lay My Burdens
Artist: Disciple
Album: Southern Hospitality
Tuning: Drop D
Key: D (for creating your own solo use the Bm Penatonic scale)
Legend:
b : bend
h : hammeron
p : pulloff
ph : pinch harmonic
< : pick scratch
() : optional playing
^ : rake selected strings
/ : slide up
\ :slide down
r : release bend
~ : vibrato

**UPDATE (2.6.10): In the Intro for clean and metal distortion, i had some wrong notes 
if you printed it off look at it again. it should be 110% this time.

Intro:Lead Guitar (Clean w/ some Reverb)
e|--------------------------------------------------------|
B|--------------------------------------------------------|
G|-------7-----^7-9p7-7--7---7-^7-------------------------|
D|-------7-----^7-7---7--7h9-7-^7--2/4-4h5-0--------------|
A|---7h9--------------------------------------------------|
D|-0-------------------------------0/0-0-0-0----(\\\\\\\)-|

e|-----------------------10-7-----------------------------|
B|----------------------------(10)------------------------|
G|-------7-----^7-9p7-7---------9b11rb9-7-9---7-^---------|
D|-------7-----^7-7---7---------------------9---^-2/4-----|
A|---7h9--------------------------------------------------|
D|-0----------------------------------------------0/0-----|

Intro Pt. II:Lead Guitar (Metal Distoriton)
1.
e|---------------------------------------------------------------------|
B|---------------------------------------------------------------------|
G|-9b11----9p7-7h9p7-9b12--9b11-7---7h9---7-7h9------------------------|
D|--------------------------------------9-------7h9--------------------|
A|---------------------------------------------------7h9h10-9----//////|
D|---------------------------------------------------------------//////|
2.
e|-------------------------------------------------------------------------|
B|-------------------------------------------------------------------------|
G|-9b11----9p7-7h9p7-9b12--9b11-7--7h9-----7-------------------------------|
D|-------------------------------------7h9---9-7-////-5-----0--------------|
A|-----------------------------------------------////-5-----0--let-it-ring-|
D|-----------------------------------------------////-5-3ph-0--------------|

Rhythm Guitar (Metal Distortion):
1.
e|-----------------------------------|
B|------------2----------------3-----|
G|------------3----------------2-----|
D|------------0-----10----5----0-----|
A|------------0-----10----5----0-----|
D|-<<<<<<<<<<-0-----10----5----0-----|
              D     C     G    D
2.
e|-----------------------------------|
B|------------2--------------------3-|
G|------------3--------------------2-|
D|------------0-----10----5----3---0-|
A|------------0-----10----5----3---0-|
D|-<<<<<<<<<<-0-----10----5----3---0-|
              D     C     G    F   D

I do not have the solo down but i just create my own solo using the Bm Penationic scale.
quite fun. ask your guitar teacher about penatonic scales. or search it on google! have
playin with Disciple! the verses are extremely similar to the Clean Intro or when in
just email me @ roushrage@gmail.com to tell me what to add...have fun!