Dishwalla - Give Text Guitar Tab

Learn song with the online tabulature player
-------------------------------------------------------------------------------
			     DISHWALLA - Give
-------------------------------------------------------------------------------

Tabbed By : Brady McCluer
e-mail: 

Tuning: EADG


INTRO & VERSES

G|------------------|--------------------|------------------|----------------|
D|-------6--------6-|(6)----6------------|------------------|----------------|
A|-------------6h8--|--------------6h8p6-|-4-4-4-4-4-4-4-4h6|-3--------------|
E|-4-4------x4------|----4-----x4--------|--------------4---|----------------|


CHORUS


G|------------------|------------------|-----------------|-------------------|
D|--------3--------3|-2-2---22--------2|-1-1---1---------|-------------------|
A|----------------3-|---------2------2-|-----------------|-------------------|
E|-1-1-------x1--1--|----------0----0--|----------x4--x5-|-6---6-----4/6---4-|


G|------------------|------------------|-----------------|-------------------|
D|--------3--------3|-2-2---22--------2|-1-1---1---------|----------------3--|
A|----------------3-|---------2------2-|-----------------|-----------------65|
E|-1-1-------x1--1--|----------0----0--|----------x4--x5-|-6---6-----4-------|


==>Skip this section and go to BRIDGE on 2nd CHORUS
G|--------6h8p66----68-|-5-------------|
D|-----6-----------8---|---------------|
A|-4-4-----------------|---------------|
E|---------------------|---------------|


BRIDGE


G|---------8h10p8------8-10--|----------------------|
D|---------------11--11----11|-10-10-------------10-|
A|-----11--------------------|------10-10------10---|
E|-9-9-----------------------|-----------8---88-----|


SOLO


G|-----------------|-----------------|-----------------|----------------|
D|-----------------|-----------------|-----------------|----------------|
A|-8-8-8-8-8-8-8-8-|-7-7-7-7-7-7-7-7-|-6-6-6-6-6-6-6-6-|----------------|
E|-----------------|-----------------|-----------------|-6---6-------346|


OUTRO

========================================================>This measure varies

G|-----------------|------------------|------------------|------5p3-3-3h5----|
D|-----3-------1-3-|(3)---3-------1-3-|(3)---3-------1-3-|(3)------------1h3-|
A|----------1h3----|-----------1h3----|-----------1h3----|-------------------|
E|-1-1---x1--------|---1----1---------|---1----1---------|-------------------|




| /  slide up
| \  slide down
| h  hammer-on
| p  pull-off
| ~  vibrato
| +  harmonic
| x  Mute note
===============================================================================