Dispatch - Headlights Text Guitar Tab

Learn the song with the online tablature player
This is song is awesome.

()-  thwack.  I really don't know what this means. Listen to the cd and youll see what I mean.
h - Hammer on (to)
/ - slide up (to)
\ - slide down or pull off (to)
* - hold
| - let go of hold

E-----------0*---|-----------------------------3----------------------|-----------------|
B-----------0h1*-|--------------1\0*------0h1*---1\0-------0h1-3-1\0--|-----------------|
G-(0)-------2*---|------------0*---------------------0----------------|-----------------|
D--------2*------|--------0h2-----------------------------------------|-----------------|
A-----0*---------|--0h2h3---------------------------------------------|-----------------|
E----------------|--------------------3*----------------3*------------|-----------------|
                                      ^
+I find it easiest if you do this note^ with the third finger.

E-----------0*---|------------------3--------------------------------------------------|
B-----------0h1*-|-1-1-1-1-1-1-0----0--------------------------------------------------|
G-(0)-------2*---|-2-0-0-0-0-0-0----0--------------------------------------------------|
D-------2*-------|------------------0--------------------------------------------------|
A----0*----------|-0-2-3-3-2-0------2--------------------------------------------------|
E----------------|-------------3----3--------------------------------------------------|

Repeat through verses.

-Chord Progression through rock verses:

 Amin   Amin   C   G

-And Later:

Amin   C   G   G

-Little thing he does during slow part:

C  C                         Emin          Amin

And right before the solo

G   Dmin   Dmin

Solo

E-----3h5-5-----3h5--7-7\3--12-12-12-15-15-15-15-15-15------------------------------------|
B-3h5--------3h5----------------------------------------12-12-12-12-12-12/15\5(bend)\3----|
G-----------------------------------------------------------------------------------------|
D-----------------------------------------------------------------------------------------|
A-----------------------------------------------------------------------------------------|
E-----------------------------------------------------------------------------------------|