Dispatch - Hey Hey Text Guitar Tab

Learn the song with the online tablature player
Dispatch
"Hey Hey"
SILENT STEEPLES C.D.

Intro

e-----2--4--2--------2--4--4
B--2--4--5--4--2--2--4--5--4
G--2--4--6--4--2--2--4--6--5
D--2--4--6--4--2--2--4--6--6
A--0--2--4--2--0--0--2--4--6
E--------------------------4

Verse #1

e--0--2--4-0
B--0--4--5-2
G--1--4--6-2
D--2--4--6-2
A--2--2--4-0
E--0--------

Chorus

e--0--4--0--2
B--2--5--0--4
G--2--6--1--4
D--2--6--2--4
A--0--4--2--2
E--------0---

Verse #2

e--0--2--4--2--4--2--4---
B--0--4--5--4--5--4--5--2
G--1--4--6--4--6--4--6--2
D--2--4--6--4--6--4--6--2
A--2--2--4--2--4--2--4--0
E--0---------------------

Bridge

e-----2--4--------2--4-------2--4--2--0-----2--4--4
B--2--4--5--2--2--4--5----2--4--5--4--2--2--4--5--4
G--2--4--6--2--2--4--6----2--4--6--4--2--2--4--6--5
D--2--4--6--2--2--4--6----2--4--6--4--2--2--4--6--6
A--0--2--4--0--0--2--4----0--2--4--2--0--0--2--4--6
E-------------------------------------------------4

The order:

Intro
Once
Verse #1: 4 times

Chorus
2 times
Verse #1: 2 times
Verse #2: 2 times

Chorus
2 times

Bridge thing
once

Verse 2
4 times

Verse 1
7 times
Ending: Once

Here are the lyrics:

Well I'm moving kind of slow
Down that same old path
Wasting time inside this hour glass
She's coming up ahead now
And I feel, yes I feel
My head turning like a race car wheel
Maybe I'll try to say hi another time
I've gotta find a way to get inside your mind
I'll talk smoothe and walk one step closer
Be real cool, dang real cool
say what you want, say what you mean
question yourself are you really what you seem?
say who you are, say what you mean
question yourself are you really what you dream?
Now here I come one more time
But she slides on by
Not even a second look
She took the bait right off that hook
I've got my blinders on tight
I pull my cap a little lower
I can hide, hide away
You may think that this is easy for me
But there's a lot of things you don't know,
You don't care, you don't want to see
Long while since I've got myself across
But maybe there's a reason for that
Even if I caught you I'd throw you back.
Chrous
hey...hey...
I really don't want to fall back
because you don't seem like you care
and if I would fall back
you don't seem like you care
fall down your back, fall down your back
fall down your back, fall down your back
I will not, I will not hold, hold you back
you don't seem like you care
Fall back...you don't
Fall back...you don't
Fall back...you don't
hey...hey...