Dispatch - Two Coins Text Guitar Tab

Learn song with the online tabulature player
I've seen a bunch of tabs for this song that have minor inaccuracies, so I'm just going
tab out the part for the first guitar. I'm pretty sure this version sounds the most like
album version of the song. Also, you can just play the top of barre chords if you like. 
for not writing out the rhythm, but this song is easy enough that you should be
to pick it up pretty quickly.

Intro (x1):

		  D	  C	  G

e-----------------5--(x)--3--(x)--3-----------------|
B-----------------7--(x)--5--(x)--3-----------------|
G----4h5p4--------7--(x)--5--(x)--4--3p0---3--------|
D--5--------------7--(x)--5--(x)--5------5---5p3p0--|
A-----------7--5--5--(x)--3--(x)--5-----------------|
E----------------------------(x)--3-----------------|

		  D	  C	  G

e-----------------5--(x)--3--(x)--3--|
B-----------------7--(x)--5--(x)--3--|
G----4h5p4--------7--(x)--5--(x)--4--|
D--5--------------7--(x)--5--(x)--5--|
A-----------7--5--5--(x)--3--(x)--5--|
E----------------------------(x)--3--|

1st Verse/Chorus (x8):

		  D	  C	  G

e-----------------5--(x)--3--(x)--3--|
B-----------------7--(x)--5--(x)--3--|
G----4h5p4--------7--(x)--5--(x)--4--|
D--5--------------7--(x)--5--(x)--5--|
A-----------7--5--5--(x)--3--(x)--5--|
E----------------------------(x)--3--|


I stick loneliness, your lips
and the two coins of your eyes
into my pockets, yeah

well the train skates into
Port Henry late Sunday
sometimes when I'm riding high
feeling fine you know there's something
troubling yeah,troubling my mind

so I reach into my pocket for some
small change
I reach into my pocket for some
small change

1st Interlude (x1):

   D     Em      G      Em    D     C

e--5-----7-------10-----7-----5-----3---|
B--7-----7h8-----12-----8-----7-----5---|
G--7-----7h9-----12-----9-----7-----5---|
D--7-----7h9-----12-----9-----7-----5---|
A--5-----7-------10-----7-----5-----3---|
E---------------------------------------|
(The chord changes are somewhat quick here.)


2nd Verse/Chorus (x7):

		  D	  C	  G

e-----------------5--(x)--3--(x)--3--|
B-----------------7--(x)--5--(x)--3--|
G----4h5p4--------7--(x)--5--(x)--4--|
D--5--------------7--(x)--5--(x)--5--|
A-----------7--5--5--(x)--3--(x)--5--|
E----------------------------(x)--3--|


I want bones like iron, blood like mercury
so I can tell you when I'm rising
and when I'm sinking in, I'm sinking in,
I'm sinking in, I'm sinking in

I reach into my pocket for some
small change
I reach into my pocket for some
small change, yeah


2nd Interlude (x2):

   D     Em      G      Em    D     C

e--5-----7-------10-----7-----5-----3---|
B--7-----7h8-----12-----8-----7-----5---|
G--7-----7h9-----12-----9-----7-----5---|
D--7-----7h9-----12-----9-----7-----5---|
A--5-----7-------10-----7-----5-----3---|
E---------------------------------------|


3rd Verse (x4):

		  D	  C	  G

e-----------------5--(x)--3--(x)--3--|
B-----------------7--(x)--5--(x)--3--|
G----4h5p4--------7--(x)--5--(x)--4--|
D--5--------------7--(x)--5--(x)--5--|
A-----------7--5--5--(x)--3--(x)--5--|
E----------------------------(x)--3--|

we're gonna take it to the people, yeah
we're gonna take it to the people, yeah
we're gonna take it to the people, yeah
we're gonna take it to the people, yeah


3rd Verse (cont.) (x1):

	  D	  C	  G

e-----------------5--(x)--3--(x)--3--|
B-----------------7--(x)--5--(x)--3--|
G----4h5p4--------7--(x)--5--(x)--4--|
D--5--------------7--(x)--5--(x)--5--|
A-----------7--5--5--(x)--3--(x)--5--|
E----------------------------(x)--3--|

                  D	  C	  G

e-----------------5--(x)--3--(x)--3-----------------|
B-----------------7--(x)--5--(x)--3-----------------|
G----4h5p4--------7--(x)--5--(x)--4--3p0---3--------|
D--5--------------7--(x)--5--(x)--5------5---5p3p0--|
A-----------7--5--5--(x)--3--(x)--5-----------------|
E----------------------------(x)--3-----------------|

hey let's drink from the cup
share some luck
go ahead and laugh cause it don't
cost much, no, no, no, it don't
cost much

Outro(x1):

e-----------------(x)--(x)--(x)
B-----------------(x)--(x)--(x)
G----4h5p4--------(x)--(x)--(x)
D--5--------------(x)--(x)--(x)
A-----------7--5--(x)--(x)--(x)
E---------------------------(x)
(The chords are pretty much muted from this point on, you can keep playing the riff and
the chords or do whatever you'd like.)

I stick loneliness, your lips
and the two coins of your eyes
into my pockets