Disrupt - No Values Chords

 
No chord
    
Standard guitar tuning:
E
A
D
G
B
E
No capo

Intro

G|---------------|
D|---------------|
A|-0-6-0---0-6-0-|
E|-------4-------|
Main
G|---------------|-----------
D|---------------|-----------
A|0-----0-3-6----|-0-0-0-6-5-3-0
E|--8-4----------|-----------