Dixie Chicks - Long Time Gone Text Guitar Tab

Learn song with the online tabulature player
e|-----------0-----2-2-0---------------0-2-3-2-0-----------------------------|
B|-----0-3-3----3---------3-------0-3----------------------------------------|
G|--2---------------------------2--------------------------------------------|
D|---------------------------------------------------------------------------|
A|---------------------------------------------------------------------------|
E|---------------------------------------------------------------------------|

e|0-2-5-5-2-0-5-5-2-0-5-5-2-0-2-2-1-1-0-0------------------------------------|
B|----------------------------------------3----------------------------------|
G|---------------------------------------------------------------------------|
D|---------------------------------------------------------------------------|
A|---------------------------------------------------------------------------|
E|---------------------------------------------------------------------------|

You hear this riff many times through out the song. At one point, it gets a
little bit higher, but i'm not quite sure exactly what it is yet. This part is
for the banjo normally, but it's working for me on my guitar too. This is my
first tab, so correct me all you want! Thanks!