Dj Fresh - Hot Right Now Text Guitar Tab

Learn the song with the online tablature player
Intro

e--2---2---2----0------2---2---2----0-----2---2---2----0-|
B--------------------------------------------------------|
G--------------------------------------------------------|x2 + 1 more at end
D--------------------------------------------------------|
A--------------------------------------------------------|
E--------------------------------------------------------|

Verse 1

e----0-0-0-0-0-0-0---0-0-0-0-0-0-0-5-0---0-0-0-0-0-5-0-0-0-0-0-5----------|
B------------------3------------------------------------------------------|
G-------------------------------------------------------------------------|
D-------------------------------------------------------------------------|
A-------------------------------------------------------------------------|
E-------------------------------------------------------------------------|

e----0-0-0-0-0-0-0---0-0-0-0-0-0-0-5-0---0-0-0-0-0-5-0-0-0-0-0-5----------|
B------------------3------------------------------------------------------|
G-------------------------------------------------------------------------|
D-------------------------------------------------------------------------|
A-------------------------------------------------------------------------|
E-------------------------------------------------------------------------|

Chorus

e-----0-0-0-0-5-5-0-5-5-5-0-0-5-5-0--------0-0-0-0-5-5-0-5-5-5-0-0-5-5-0---|
B--------------------------------------------------------------------------|
G--------------------------------------------------------------------------|
D--------------------------------------------------------------------------|
A--------------------------------------------------------------------------|
E--------------------------------------------------------------------------|

e--2---2---2----0------2---2---2----0-----2---2---2----0-|
B--------------------------------------------------------|
G--------------------------------------------------------|
D--------------------------------------------------------|
A--------------------------------------------------------|
E--------------------------------------------------------|

e-----0-0-0-0-5-5-0-5-5-5-0-0-5-5-0--------0-0-0-0-5-5-0-5-5-5-0-0-5-5-0---|
B--------------------------------------------------------------------------|
G--------------------------------------------------------------------------|
D--------------------------------------------------------------------------|
A--------------------------------------------------------------------------|
E--------------------------------------------------------------------------|

e--2---2---2----0------2---2---2----0-----2---2---2----0-|
B--------------------------------------------------------|
G--------------------------------------------------------|
D--------------------------------------------------------|
A--------------------------------------------------------|
E--------------------------------------------------------|

e-----0-0-0-0-5-5-0-5-5-5-0-0-5-5-0--------0-0-0-0-5-5-0-5-5-5-0-0-5-5-0---|
B--------------------------------------------------------------------------|
G--------------------------------------------------------------------------|
D--------------------------------------------------------------------------|
A--------------------------------------------------------------------------|
E--------------------------------------------------------------------------|

e--2---2---2----0------2---2---2----0-----2---2---2----0-|
B--------------------------------------------------------|
G--------------------------------------------------------|
D--------------------------------------------------------|
A--------------------------------------------------------|
E--------------------------------------------------------|
Verse 2

e----0-0-0-0-0-0-0---0-0-0-0-0-0-0-5-0---0-0-0-0-0-5-0-0-0-0-0-5----------|
B------------------3------------------------------------------------------|
G-------------------------------------------------------------------------|
D-------------------------------------------------------------------------|
A-------------------------------------------------------------------------|
E-------------------------------------------------------------------------|

e----0-0-0-0-0-0-0---0-0-0-0-0-0-0-5-0---0-0-0-0-0-5-0-0-0-0-0-5----------|
B------------------3------------------------------------------------------|
G-------------------------------------------------------------------------|
D-------------------------------------------------------------------------|
A-------------------------------------------------------------------------|
E-------------------------------------------------------------------------|

Chorus

e-----0-0-0-0-5-5-0-5-5-5-0-0-5-5-0--------0-0-0-0-5-5-0-5-5-5-0-0-5-5-0---|
B--------------------------------------------------------------------------|
G--------------------------------------------------------------------------|
D--------------------------------------------------------------------------|
A--------------------------------------------------------------------------|
E--------------------------------------------------------------------------|

e--2---2---2----0------2---2---2----0-----2---2---2----0-|
B--------------------------------------------------------|
G--------------------------------------------------------|
D--------------------------------------------------------|
A--------------------------------------------------------|
E--------------------------------------------------------|

e-----0-0-0-0-5-5-0-5-5-5-0-0-5-5-0--------0-0-0-0-5-5-0-5-5-5-0-0-5-5-0---|
B--------------------------------------------------------------------------|
G--------------------------------------------------------------------------|
D--------------------------------------------------------------------------|
A--------------------------------------------------------------------------|
E--------------------------------------------------------------------------|

e--2---2---2----0------2---2---2----0-----2---2---2----0-|
B--------------------------------------------------------|
G--------------------------------------------------------|
D--------------------------------------------------------|
A--------------------------------------------------------|
E--------------------------------------------------------|

e-----0-0-0-0-5-5-0-5-5-5-0-0-5-5-0--------0-0-0-0-5-5-0-5-5-5-0-0-5-5-0---|
B--------------------------------------------------------------------------|
G--------------------------------------------------------------------------|
D--------------------------------------------------------------------------|
A--------------------------------------------------------------------------|
E--------------------------------------------------------------------------|

e--2---2---2----0------2---2---2----0-----2---2---2----0-|
B--------------------------------------------------------|
G--------------------------------------------------------|
D--------------------------------------------------------|
A--------------------------------------------------------|
E--------------------------------------------------------|

Bridge

e-----------------------------|
B-------5-5--3-3--------------|
G-----------------------------| x3
D-----------------------------|
A-----------------------------|
E-----------------------------|

e------------------------------|
B-------5-3--------------------|
G-----------5-3-0--------------|
D------------------------------|
A------------------------------|
E------------------------------|

repeat bridge

Chorus
e-----0-0-0-0-5-5-0-5-5-5-0-0-5-5-0--------0-0-0-0-5-5-0-5-5-5-0-0-5-5-0---|
B--------------------------------------------------------------------------|
G--------------------------------------------------------------------------|
D--------------------------------------------------------------------------|
A--------------------------------------------------------------------------|
E--------------------------------------------------------------------------|

e--2---2---2----0------2---2---2----0-----2---2---2----0-|
B--------------------------------------------------------|
G--------------------------------------------------------|
D--------------------------------------------------------|
A--------------------------------------------------------|
E--------------------------------------------------------|

e-----0-0-0-0-5-5-0-5-5-5-0-0-5-5-0--------0-0-0-0-5-5-0-5-5-5-0-0-5-5-0---|
B--------------------------------------------------------------------------|
G--------------------------------------------------------------------------|
D--------------------------------------------------------------------------|
A--------------------------------------------------------------------------|
E--------------------------------------------------------------------------|

e--2---2---2----0------2---2---2----0-----2---2---2----0-|
B--------------------------------------------------------|
G--------------------------------------------------------|
D--------------------------------------------------------|
A--------------------------------------------------------|
E--------------------------------------------------------|

e-----0-0-0-0-5-5-0-5-5-5-0-0-5-5-0--------0-0-0-0-5-5-0-5-5-5-0-0-5-5-0---|
B--------------------------------------------------------------------------|
G--------------------------------------------------------------------------|
D--------------------------------------------------------------------------|
A--------------------------------------------------------------------------|
E--------------------------------------------------------------------------|

e--2---2---2----0------2---2---2----0-----2---2---2----0-|
B--------------------------------------------------------|
G--------------------------------------------------------|
D--------------------------------------------------------|
A--------------------------------------------------------|
E--------------------------------------------------------|