Does It Offend You Yeah - Epic Last Song Text Guitar Tab

Learn song with the online tabulature player
Main Riff:
G|-6-6-6-6-6-6-6-5-|-5-5-5-5-5-5-5---|-----------------|-----------------|
D|-----------------|---------------6-|-8-8-8-8-8-8-8---|-----------------|
A|-----------------|-----------------|---------------8-|-8-8-8-8-8-8-8-8-|
E|-----------------|-----------------|-----------------|-----------------|

G|-----------------|-----------------|-----------------|-----------------|
D|-----------------|-----------------|-----------------|-----------------|
A|-9-9-9-9-9-9-9-9-|-8-8-8-8-8-8-8-6-|-6-6-6-6-6-6-6-6-|-6-6-6-6-6-6-6-6-|
E|-----------------|-----------------|-----------------|-----------------|