Dolly Parton - Here You Come Again Text Guitar Tab

Learn song with the online tabulature player
Dolly Parton – Here You come again

0:25
G |----------|--------------|-------------|--------------|
D |--------4-|-------86---4-|-------------|--------------|
A |-4-4-4-4--|-----------4--|----------45-|-----6----234-|
E |----------|-46-67--------|-46-67-7-----|-64-6--64-----|

G |-----------------|-------------|---------------|-------------|
D |-----------------|--2----------|---7-7-------4-|-----2-----4-|
A |--4-4--4-4-4-432-|-2--20-------|-05---05-054---|-42-2--64-4--|
E |-4-4-------------|-------55-55-|---------------|-------------|

G |-------------|-------------|-------------|-------------|
D |-------------|-5-----------|--5----------|-02-2--02-2--|
A |-4---42-2222-|----02-23-33-|-3--02-23-33-|-----0-----0-|
E |--2-2--------|-------------|-------------|-------------|
				
G |------------|----------42-|---------------|--------------|
D |------------|-5-----------|-05------------|-----2--------|
A |-05-5--5555-|----02-23----|----02-23-3567-|----2--20-345-|
E |------------|-------------|---------------|-75-----------|

G |-------------|-------------|--3---------|-------------|
D |-------------|--3----------|-3--3-1—-10-|-5------3-20-|
A |-0505--55543-|-3--31-11-11-|-----1--1---|----53-3-----|
E |-------------|-------------|------------|-------------|

G |----------------|-1-----------|--1----------|-------------|
D |-05-------------|-------------|-1-----------|-13-3--13-3--|
A |----53--53-3331-|----13-34-44-|----13-34-44-|-----1-----1-|
E |-------3--------|-------------|-------------|-------------|

G |----------|---1------------|---------------|---------------|
D |--1--1111-|*-1------------*|---------------|---------------|
A |-1--------|*----13-34-44--*|---------------|---------------|
E |----------|----------------|---------------|---------------|

Enjoy It!

Comments to whiteguy_n_harmony@hotmail.com