Don Williams - Come Early Morning Text Guitar Tab

Learn song with the online tabulature player
Artist: Don Williams
Song: Come Early Morning
Tabbed by: MrGoose

This is my first tab attempt, Done by ear.

                                       I Been Walking
G|---------------------------------------------------------------|
D|-----------------------------------------------------------9---|
A|-------9---------9---------9---------9---------9---------9-----|
E|--7---------7---------7---------7---------7---------7----------|


G|---------------------------------------------------------------|
D|-----------------------------------------------------------4---|
A|-------9---------9---------9---------9---------4---------4-----|
E|--7---------7---------7---------7---------2---------2----------|