Donavon Frankenreiter - It Dont Matter Text Guitar Tab

Learn song with the online tabulature player
-------------------------------------------------------------------------------
                            It Don't Matter - Donavon Frankenreiter
-------------------------------------------------------------------------------
Tabbed by:GP Jones
Email:gjozman@hotmail.com

Tuning:Standard

Intro: C  F  G

Verse
         C           F        G
e|-------0-----------1---------3-------------------------------------------|
B|-------1-----------1---------3-------------------------------------------|
G|-------0-----------2---------4-------------------------------------------|
D|-------2-----------3---------5-------------------------------------------|
A|-------3-----------3---------5-------------------------------------------|
E|-------x-----------1---------3-------------------------------------------|

Chorus
         C           F         G
e|-------0-----------1---------3-------------------------------------------|
B|-------1-----------1---------3-------------------------------------------|
G|-------0-----------2---------4-------------------------------------------|
D|-------2-----------3---------5-------------------------------------------|
A|-------3-----------3---------5-------------------------------------------|
E|-------x-----------1---------3-------------------------------------------|

Bridge

             F         G
e|-----------1---------3-------------------------------------------|
B|-----------1---------3-------------------------------------------|
G|-----------2---------4--------------------X 3--------------------|
D|-----------3---------5-------------------------------------------|
A|-----------3---------5-------------------------------------------|
E|-----------1---------3-------------------------------------------|

Ending

e|-----0---0---0-----0--0--0-----0---0-/-0---0----0------------------|
B|-----5-h-8-p-5-----3-h5-p3-----1---3-/-5---3----1------------------|
G|-------------------------------------------------------------------|
D|-----------------------------------------------------X 3-----------|
A|-------------------------------------------------------------------|
E|-------------------------------------------------------------------|

end on C

thats it fellas...enjoy playin
big it up to pagey and rozzo

TC Leavers 04