Donavon Frankenreiter - Move By Yourself Text Guitar Tab

Learn song with the online tabulature player
-------------------------------------------------------------------------------
                             Move By Yourself - Donovan Frankenreiter
-------------------------------------------------------------------------------
Tabbed by: Breeze
Email:

Tuning: Standard

INTRO:
e|---------------------------------------------------------------------------------|
B|10-----8----5--------------------------------------------------------------------|
G|10-----7----5--------------------------------------------------------------------|
D|10-----9----5--------------------------------------------------------------------|
A|8------7----x--------------------------------------------------------------------|
E|------------5-------3--4--5------------------------------------------------------|

VERSES:
e|--------------------5----------------------------------------------------------|
B|----5---------------6----------------------------------------------------------|
G|----5---------------5----------------------------------------------------------|
D|----5---------------7----------------------------------------------------------|
A|--------------------5----------------------------------------------------------|
E|----5--------------------------------------------------------------------------|


CHORUS:
e|----------------7---------------------------------------------------------------------|
B|--10------------8------------5-------REPEAT-------------------------------------------|
G|--10------------7------------5--------------------------------------------------------|
D|--10------------9------------5--------------------------------------------------------|
A|--8-------------7---------------------------------------------------------------------|
E|-----------------------------5----------------------3-----4-----5---------------------|


SOLO IN A minor PENTATONIC