Donots - Its Over Text Guitar Tab

Learn song with the online tabulature player
Intro
G|-------------------|
D|-------------------|
A|-------------11-44-|
E|-14-14/22-44-------|

G|------------------------------------------------------|
D|------------------------------------------------------|
A|-22222222-44444444----------2222--1-22222222-44444444-|
E|-------------------22222553-----35--------------------|

Verse
G|------------------------------------------------------------------------------------------------------|
D|------------------------------------------------------------------------------------------------------|
A|-222-224-444-------2-222-222-224-444-------6-565-222-224-444-------2-222-222-224-444------------------|
E|-------------222-22------------------000-00------------------222-22------------------2222222222222222-|

Pre Chorus
G|------------------------------------------------------|
D|------------------------------------------------------|
A|-6-66-66-6-4-2-2222222244442222-----------3-4-4444444-|
E|--------------------------------2-22-22-2-------------|

G|-------------|
D|-------------|
A|-------11-44-|
E|-22-44-------|

Chorus
G|----------------------------------------------------------------------------------------------------------|
D|----------------------------------------------------------------------------------------------------------|
A|-22222222-44444444----------2222--1-22222222-44444444--------------4443-222222-44444444-------------------|
E|-------------------22222222-----35--------------------00000000-0000---------------------22222222-11111111-|

G|------------------|
D|------------------|
A|-22222222-4444444-|
E|------------------|

Verse 2
G|------------------------------------------------------------------------------------------------------|
D|------------------------------------------------------------------------------------------------------|
A|-222-224-444-------2-222-222-224-444-------6-565-222-224-444-------2-222-222-224-444------------------|
E|-------------222-22------------------000-00------------------222-22------------------2222222222222222-|

Pre Chorus
G|--------------------------------------------------------------|
D|-------------------------------------------------------346434-|
A|-6-66-66-6-4-2-2222222244442222-----------3-4-4444444-4-------|
E|--------------------------------2-22-22-2---------------------|

G|------------------------------------------------------|
D|------------------------------------------------------|
A|-6-66-66-6-8-2-2222222244442222-----------3-4-4444444-|
E|--------------------------------2-22-22-2-------------|

G|-------------|
D|-------------|
A|-------11-44-|
E|-22-44-------|

Chorus
G|----------------------------------------------------------------------------------------------------------|
D|----------------------------------------------------------------------------------------------------------|
A|-22222222-44444444----------2222--1-22222222-44444444--------------4443-222222-44444444-------------------|
E|-------------------22222222-----35--------------------00000000-0000---------------------22222222-11111111-|

G|------------------|
D|------------------|
A|-22222222-4444444-|
E|------------------|
Break

Bridge       x3
G|------------|
D|------------|
A|-22~~---4~~-|
E|------------|

G|-------------|
D|-------------|
A|-------11-44-|
E|-22-44-------|

Chorus
G|----------------------------------------------------------------------------------------------------------|
D|----------------------------------------------------------------------------------------------------------|
A|-22222222-44444444----------2222--1-22222222-44444444--------------4443-222222-44444444-------------------|
E|-------------------22222222-----35--------------------00000000-0000---------------------22222222-11111111-|

G|---------------------|
D|---------------------|
A|-22222222-44444\1414-|
E|---------------------|

Final Chorus
G|------------------------------------------------------------------------------------------------------------|
D|------------------------------------------------------------------------------------------------------------|
A|-22222222-44444444----------2222--1-22222222-44444444-99999999-99999777-22222222-44444444-------------------|
E|-------------------22222222-----35--------------------------------------------------------22222222-11111111-|

G|-------------------|
D|-------------------|
A|-------------------|
E|-22222222-44444444-|

Ending
G|----|
D|----|
A|----|
E|-22-|

Please Rate it!