Donots - Superhero Text Guitar Tab

Learn the song with the online tablature player
SUPERHERO - Donots

This song isn’t all that hard the bass basically follows the guitar patterns.
I’m not sure why no one tabbed this out before...anyway it’s a great song and
stuff. I tabbed out the other two guitar parts too so if you’re in a band or
something you can go scope that out. Peace. Oh and they tune everything down
half a step so it becomes:      Eb      Ab      Db      Gb      . ok anyway
Peace. Email me if there are any major errors

Intro
Gb------------------------------------------------------------------------------------|
Db------------------------------------------------------------------------------------|
Ab------------------------------------------------------------------------------------|
Eb-0-0-0-0--5-5--9--9--11-11-12-12-12-12--5-5--9--9---7-7-7-5-ring-7-7-7-5-ring-7-7-7-|

Verse
Gb-------------------------------------------------------------|
Db-------------------------------------------------------------|
Ab-------------------------------------------------------------|
Eb-0-0-0-0--5-5--9--9--11-11-12-12-12-12--5-5--9--9--9--9--7-7-|

Gb--------------------------------------------------------------------------------------|
Db--------------------------------------------------------------------------------------|
Ab--------------------------------------------------------------------------------------|
Eb-0-0-0-0--5-5--9--9--11-11-12-12-12-12--5-5--9--9--9--9--7-7-7-5-ring-7-7-7-5-ring-7--|

Chorus
Gb-------------------------------------|
Db-------------------------------------| 2X
Ab-------------------------------------|
Eb-0-0-0-0-5-5-5-5-9--9--9--9--5-5-5-5-|

Verse 2
Gb-------------------------------------------------------------|
Db-------------------------------------------------------------| 3X
Ab-------------------------------------------------------------|
Eb-0-0-0-0--5-5--9--9--11-11-12-12-12-12--5-5--9--9--9--9--7-7-|

Gb--------------------------------------------------------------------------------------|
Db--------------------------------------------------------------------------------------|
Ab--------------------------------------------------------------------------------------|
Eb-0-0-0-0--5-5--9--9--11-11-12-12-12-12--5-5--9--9--9--9--7-7-7-5-ring-7-7-7-5-ring-7--|

Chorus

Bridge
Gb----------------------------------------------------|
Db----------------------------------------------------|
Ab----------------------------------------------------|
Eb-0----5----0----5----0-0-0-0-5-5-5-5-0-0-0-0-5-stop-|

Gb-------------------------------------------------------------|
Db-------------------------------------------------------------|
Ab-------------------------------------------------------------|
Eb-0-0-0-0--5-5--9--9--11-11-12-12-12-12--5-5--9--9--9--9--7-7-|

Gb------------------------------------------------------------------------------------|
Db------------------------------------------------------------------------------------|
Ab------------------------------------------------------------------------------------|
Eb-0-0-0-0--5-5--9--9--11-11-12-12-12-12--5-5--9--9---7-7-7-5-ring-7-7-7-5-ring-7-7-7-|

Chorus

Outro
Chorus)