Donovan - Lalena Text Guitar Tab

Learn the song with the online tablature player
Lalena
Donovan

This Song is really easy to play, slow and simple.
I think there are one, or two, or three ;) general patterns with some highlights and
in it.
I tried to tab it out from the smothers brothers live act.
I'm still not completely statisfied with this, i'll edit it tomorrow.
C&C are welcome, leave me a note with corrections :)

Youre starting with this, the (2) are small optional picks
It goes straight through the entire song

        Am                    Em
e-|------------------------------------------------------------------|
B-|------1-----------1-----------------------------------------------|
G-|------2--(2)------2--(2)----------0----------------0--------------|
D-|----2-----------2-----------------2--(2)-----------2--(2)---------|
A-|--0-----------0-----------------2----------------2----------------|
E-|-----------------------------0----------------0-------------------|

           When the Sun            Goes to bed

Am               Em
That's the time your raise (up) your head

Pattern 1

        Dm                                 G7
e-|-------0------------0-------0----------------1-0-1------|
B-|-------3------------3-------3----------------0-0-0------|
G-|-----2--------2--------2-------2------------------------|
D-|---0----------------------------------------------------|
A-|------------------------------------------2-------------|
E-|----------------------------------------3---------------|
          That's your lot in life       Lalena

Pattern 2
Try to listen to the song to figure this out.

              C                         E
e-|--------------------1-----3-1-0------0-----------------------------|
B-|--------------------0-----------1------3-0-------------------------|
G-|-------------------------------------------1-----------------------|
D-|-------------2-------------------------------2---------------------|
A-|-----------3------------3-3-3-3-3----2-2-2-2-----------------------|
E-|---------------------------------------------0---------------------|
        Can't blame you                 Lalena

Em         Am
Arty tart (Oh so) la de da
Em            Am
Can your part get much sadder
Pattern 1
That's your lot in life Lalena
Pattern 2
Can't blame you Lalena

And so on....

Run you hand thru your hair
Paint your face with despair
That's your lot in life Lalena
Can't blame you Lalena

When the sun goes to bed
That's the time your raise your head
That's your lot in life Lalena
Can't blame you Lalena

Arty tart oh so la de da
Can your part ever get, ever get much sadder
That's your lot in life Lalena
Can't blame you Lalena