Doors - Lamerica Text Guitar Tab

Learn song with the online tabulature player
the other tab dosent have the intro so here it is:



|-----------------------------------------------------------|
|-----------------------------------------------------------|
|-----------------------------------------------------------|
|-----------------------------------------------------------|
|--(3)2rb~~~~2--1--0------------------2~~~-1--2--1--0-------|
|-----------------------3--2--1--0---------------------3--2-|

|------------------------------------------|
|------------------------------------------|
|------------------------------------------|
|------------------------------------------|
|--2--1--------2--1-----------2--1---------|
|--------3--2----------3--2----------3--2--| repeat endlessley

-bertoast