Doors - Yes The River Knows Text Guitar Tab

Learn the song with the online tablature player
------------------------------------------------------|
---17b19---17-19-17h19p17-16-17-16--------------------|
------------------------------------18-14-18-14-------|
------------------------------------------------------|
------------------------------------------------------|
------------------------------------------------------|

------------------------------------------------------|
--------------16-------------17-19-17--16-17-16-------|
---18b20---16----16---19b21---------------------------|
------------------------------------------------------|
------------------------------------------------------|
------------------------------------------------------|

---19--19p17p16-----------------------------------------------|
----------------19-17-16--------------------------------------|
-------------------------18\----11-13-14-16--14h16p14p13-11---|
--------------------------------------------------------------|
--------------------------------------------------------------|
--------------------------------------------------------------|

------------------------------------------------------|
------------------------------------------------------|
---11/13--11-13-11--9-11-9---18b19b18-----------------|
------------------------------------------------------|
------------------------------------------------------|
------------------------------------------------------|