Doves - The Last Son Text Guitar Tab

Learn song with the online tabulature player
Enters at Pre chorus 1
G|------------------------------------------------|
D|------------------------------------------------|
A|-2~-4~-7~---22222222-44444444-77777777-77777777-|
E|------------------------------------------------|


Chorus
G|-------------------------------------------------------------------------|
D|-------------------------------------------------------------------------|
A|-44-444-444-444-4--77-777-777-777-7--22-222-2-44-444-4-77-777-7-77-777-7-|
E|-------------------------------------------------------------------------|

(11s not 1s)
G|---------------------------------------------------------------------|
D|-------------------------------7777777-------------------------------|
A|-44-444-444-444-4-----------7-----------1111111111----11\-99999999\7~|
E|-------------------55-555-5------------------------11----------------|


Verse
G|------------------------------|
D|------------------------------|
A|-2-(x16)---------------7(x16)-|
E|---------2(x16)-4(x16)--------|


Pre chorus 2
G|------------------------------------------------------------------------|
D|-----------------------------------------------------------------9------|
A|-2-2-2-2--4-4-4-4--7-7-7-7-7-7-7-7--2-2-2-2--4-4-4-4--7-7-7-7--7---11-9-|
E|------------------------------------------------------------------------|


Chorus 2
G|-------------------------------------------------------------------------|
D|-------------------------------------------------------------------------|
A|-44-444-444-444-4--77-777-777-777-7--22-222-2-44-444-4-77-777-7-77-777-7-|
E|-------------------------------------------------------------------------|

(11s not 1s)
G|-------------------------------------------------------------------------------|
D|-------------------------------7777777-----------------------------------------|
A|-44-444-444-444-4-----------7-----------1111111111----11\-99999---9\77777----7-|
E|-------------------55-555-5------------------------11-----------9----------7---|

G|---------------------------------------------------------|
D|---------------------------------------------------------|
A|777777---7--1111111111---11--99999---9--7777777--7\6\4\2-|
E|-------7---------------11---------9----------------------|

For Harmonica solo just play verse riff

Then before last chorus
G|---------|
D|---------|
A|-7\6\4\2-|
E|---------|


Last Chorus
G|------------------------------------------------------------------------------------|
D|----------------------------------9-------------------------------999---6-------6---|
A|-44-444-444-444-4--77-777-777-7------7--22-222-2-44-444-4-77-777------7---7-9-7---7-|
E|--------------------------------7---------------------------------------------------|

G|---------------------------------------------------------------------------------------|
D|---------------------------------------------------------------------------------------|
A|-44-444-444-444-4\2---------------------1111111111----11--99999---9--77777---7/9/11/13-|
E|--------------------55-5/17-5/17-5555--------------11-----------9----------7-----------|

G|------------------------------------|
D|------------------------------------|
A|-1111111111----11--99999---9---7~---|
E|------------11-----------9----------|