Downhere - More Text Guitar Tab

Learn the song with the online tablature player
        Riff 1          Riff 2              Riff 3
G|--5------5------|-5------6-6-6-6-| |-5--------------|
D|---6-6-6--6-6-6-|--6-6-6---------| |--6-6-6-8-8-8-8-|

Intro
1-2-1-3 x2

Verse
x2
        G#5                 C#5           F5                D#5
E|---------------------------------------------------------------------|
B|---------------------------------------------------------------------|
G|-5-5-5-5-5-5-5-5--6-6-6-6-6-6-6-6--1010101010101010--8-8-8-8-8-8-8-8-|
D|-6-6-6-6-6-6-6-6--6-6-6-6-6-6-6-6--1010101010101010--8-8-8-8-8-8-8-8-|
A|-6-6-6-6-6-6-6-6--4-4-4-4-4-4-4-4--8-8-8-8-8-8-8-8---6-6-6-6-6-6-6-6-|
E|-4-4-4-4-4-4-4-4-----------------------------------------------------|

PreChorus
x1
        C#5              D#5               C#5             D#5
E|--------------------------------------------------------------------|
B|--------------------------------------------------------------------|
G|-6-6-6-6-6-6-6-6--8-8-8-8-8-8-8-8--6-6-6-6-6-6-6-6--8-8-8-8-8-8-8-8-|
D|-6-6-6-6-6-6-6-6--8-8-8-8-8-8-8-8--6-6-6-6-6-6-6-6--8-8-8-8-8-8-8-8-|
A|-4-4-4-4-4-4-4-4--6-6-6-6-6-6-6-6--4-4-4-4-4-4-4-4--6-6-6-6-6-6-6-6-|
E|--------------------------------------------------------------------|

Chorus
x2
     C#5      G#5      F5        D#5      C#5     A#5       C#5      D#5
E|-------------------------------------------------------------------------|
B|-------------------------------------------------------------------------|
G|-6-6-6-6-----------10101010--8-8-8-8--6-6-6-6-----------6-6-6-6--8-8-8-8-|
D|-6-6-6-6--6-6-6-6--10101010--8-8-8-8--6-6-6-6--8-8-8-8--6-6-6-6--8-8-8-8-|
A|-4-4-4-4--6-6-6-6--8-8-8-8---6-6-6-6--4-4-4-4--8-8-8-8--4-4-4-4--6-6-6-6-|
E|----------4-4-4-4------------------------------6-6-6-6-------------------|

Break
(Intro Riff) 1-2-1

Verse
x2

PreChorus
x1

Chorus
x2

Break
(Intro Riff) 1-2-1

Bridge
x1 (It's the chous but played at half speed)
     C#5      G#5      F5        D#5      C#5     A#5       D#5      D#5
E|-------------------------------------------------------------------------|
B|-------------------------------------------------------------------------|
G|-6-6-6-6-----------10101010--8-8-8-8--6-6-6-6-----------8-8-8-8--8-8-8-8-|
D|-6-6-6-6--6-6-6-6--10101010--8-8-8-8--6-6-6-6--8-8-8-8--8-8-8-8--8-8-8-8-|
A|-4-4-4-4--6-6-6-6--8-8-8-8---6-6-6-6--4-4-4-4--8-8-8-8--6-6-6-6--6-6-6-6-|
E|----------4-4-4-4------------------------------6-6-6-6-------------------|

Chorus
x3

Break
(Intro Riff) 1-2-1