Drake Bell - Wrong Side Of The Sun Text Guitar Tab

Learn song with the online tabulature player
e|---------------------------------------------------------------------------|
B|--7--7--8--8--5--5--7--7--3--3--1--0---------3-2--3-2--3-2--3-2------------|
G|--------------------------------------2---------2----2-----2---2-----------|
D|---------------------------------------------------------------------------|
A|---------------------------------------------------------------------------|
E|---------------------------------------------------------------------------|


e|----------------10-10-12-12-10-10-10-9--10-9--10-9--10-9-------------------|
B|-7-7-8-10-12-12-----------------------10----10----10----10-----------------|
G|---------------------------------------------------------------------------|
D|---------------------------------------------------------------------------|
A|---------------------------------------------------------------------------|
E|---------------------------------------------------------------------------|