Dropkick Murphys - World Full Of Hate Text Guitar Tab

Learn song with the online tabulature player
ARTIST:Dropkick Murphys
ALBUM:Blackout
SONG:World Full Of Hate
Email:greenday_rhcp2002@yahoo.co.uk
Updated,all is perfect imo

  Riff 1 Electric guitar (clean tone)
e|----------------------------------------------------------------|
B|----------------------------------------------------------------|
G|----------------------------------------0-0-----0-0-------------|
D|-0-----------0-0-0-2-2-2-2-0----------2-------2-----------------|
A|---2-0---0-2------------------3-0-2-3-------3-------3-2-0-------|
E|-------3--------------------------------------------------3--5~-|


  MAIN RIFF acoustic (played throughout the song)(Verse and chorus)
|--------------------------------------------------------------------------|
|-3-3-3-3-3-3-3-3-3-3-3-3--1-1-1-1-1-1-1-1-1-1-1-1-1-1-1-1-1-1-1-1-1-1-1-1-|
|-0-0-0-0-0-0-0-0-0-0-0-0--0-0-0-0-2-2-2-2-0-0-0-0-0-0-0-0-0-0-0-0-0-0-0-0-|
|-0-0-0-0-0-0-0-0-0-0-0-0--2-2-2-2-2-2-2-2-2-2-2-2-2-2-2-2-2-2-2-2-2-2-2-2-|
|-2-2-2-2-2-2-2-2-2-2-2-2--3-3-3-3-0-0-0-0-3-3-3-3-3-3-3-3-3-3-3-3-3-3-3-3-|
|-3-3-3-3-3-3-3-3-3-3-3-3--------------------------------------------------|


 --------------2-2-2-2-2-2-|
 -3-3-3-3-3-3--3-3-3-3-3-3-|
 -0-0-0-0-0-0--2-2-2-2-2-2-|
 -0-0-0-0-0-0--0-0-0-0-0-0-|
 -2-2-2-2-2-2--------------|
 -3-3-3-3-3-3--------------|


 Clean electric
|-----------|       |-------------|Acoustic plays this during
|-----------|       |-3-3-3-3-3-3-|clean electric part..
|-----------|       |-0-0-0-0-0-0-|
|-----------|       |-0-0-0-0-0-0-|
|-3-2-0-----|       |-2-2-2-2-2-2-|
|-------3-5-|       |-3-3-3-3-3-3-|


That sounds bout right to me great song..listen to song while playing.
awesome band.Comments to e-mail