Dropout Year - Tire Swing Romance Text Guitar Tab

Learn song with the online tabulature player
e|------------0--------0-------------0----------0------|
B|-------------------------------------------------12--|
G|--------11-------11-------11---11---------11---------|
D|-----9--------9--------9--------------9--------------|
A|-----------------------------------------------------|
E|-----------------------------------------------------|

e|------------0--------0-------------0----------0----(12-|P.H.)
B|-------------------------------------------------------|
G|--------11-------11-------11---11---------11-----------|
D|-----9--------9--------9--------------9----------------|
A|-------------------------------------------------------|
E|-------------------------------------------------------|