Duffy - Warwick Avenue Text Guitar Tab

Learn song with the online tabulature player
Warwick Avenue Tabbed by Nate Wiggin

Intro/Verse

This is just something to work around because it changes slightly each time round.
  .            .        .       . 
|--6------------5--------3-------6-6~-|
|--6------------6--------3-------3-3~-|
|--7------------5-/7-5-3~--------3-3~-|
|--8------------7------------3-5-3-3~-|
|--------8-10-5------------5----------|
|6---8-10-----------------------------|
  .            .        .       .
|--6------------5----55--3-6-6---6-6~-|
|--6------------6----66--3-3-3---3-3~-|
|--7------------5----77----3-3---3-3~-|
|--8------------7-5~-------------3-3~-| X2
|--------8-10-5-----------------------|
|6---8-10-----------------------------|

Pre-Chorus

  .            .        .       . 
|--6------------5--------3-------6-6~-|
|--6------------6--------3-------3-3~-|
|--7------------5-/7-5-3~--------3-3~-|
|--8------------7------------3-5-3-3~-|
|--------8-10-5------------5----------|
|6---8-10-----------------------------|

  .            .        .        
|--6------------5--------3-------3-5~-|
|--6------------6--------3-------4-6~-|
|--7------------5-/7-5-3~--------3-5~-|
|--8------------7------------3-5-5-7~-|
|--------8-10-5------------5-----3-5--|
|6---8-10-----------------------------|

Chorus

Here are the chords for the chorus, work out the strumming yourself.

   A#    G#   Cm7   Dm7
|--6--|--4--|--3--|--5--|
|--6--|--4--|--4--|--6--|
|--7--|--5--|--3--|--5--|
|--8--|--6--|--5--|--7--|
|--8--|--6--|--3--|--5--|
|--6--|--4--|-----|-----|

At the end of the chorus it goes

  Cm7    A#
|--3--|--6--|
|--4--|--6--|
|--3--|--7--|
|--5--|--8--|
|--3--|--8--|
|-----|--6--|

Then it repeats the start, and then goes back to the chorus and keeps repeating for 8 i 
think.