Duman - Bu Akşam Text Guitar Tab

Learn the song with the online tablature player
en:im 90% sure this is right
tr: yuzde doksana bu tab dogru

enjoy

e|-------------------------------------------------|
B|----7-5-3-5--2-3-5-3-2------7-5-3-5-2-3-5-5------|
G|--4-----------------------4----------------------|
D|-------------------------------------------------|
A|-------------------------------------------------|
E|-------------------------------------------------|

|--------------------------------------------------|
|----7-5-3-5--2-3-5-3-2----32--32------------------|
|--4----------------------4---4--44----------------|
|--------------------------------------------------|
|--------------------------------------------------|
|--------------------------------------------------|