Duran Duran - Nice Text Guitar Tab

Learn the song with the online tablature player
Duran Duran - Nice (2004)

This is the fifth track from the band's 2004 album, Astronaut. The song is very reminiscent
of some of the band's older material by being a very groove based song. And most
of the song can based around a few simple riffs and chords, aside from the occassional
effects and notes Andy Taylor does before some of the verses.

This is the main riff played during the chorus and elsewhere in the song. Repreat the first
part twice before heading into the D and B5 chords.

    A/F#    F#m        A/F#   F#m        D                     B5
e|---------------------------------------2--2-----2--2--2--------------------------|
B|--10-10-10-10--------10-10-10-10-------3--3-----3--3--3--------------------------|
G|--9--9--9--11--------9--11-11-11-------2--2-----2--2--2------4--4-----4--4-------|
D|--11-11-11-11--------11-11-11-11-------0--0-----0--0--0------4--4-----4--4-------|
A|--9--9--9--9---------9--9--9--9------------------------------2--2-----2--2-------|
E|---------------------------------------------------------------------------------|

These are the notes Andy hits during the verses. Just repeat this as much as needed during
the verses.

   *Verses Main Riff*
e|---------------------------------------------------------------------------|
B|---------------------------------------------------------------------------|
G|---------------------------------------------------------------------------|
D|-------------2(h)-----------------4(h)-------------------------------------|
A|--0--2--4--------------0--2--4---------------------------------------------|
E|---------------------------------------------------------------------------|

Here's another part that's basically the main riff revamped, which is played just before the
chorus. Again, repeat as much as needed.

    A/F#           F#m
e|---------------------------------------------------------------------------|
B|--10-10-10-10-----10-------------------------------------------------------|
G|--9--9--9--9------11-------------------------------------------------------|
D|--11-11-11-11-----11-------------------------------------------------------|
A|--9--9--9--9------9--------------------------------------------------------|
E|---------------------------------------------------------------------------|

This is a part played in the middle of the song and at the ending.

     D                    B5
e|--2--2-----2--2--2-----------------------------------------------------|
B|--3--3-----3--3--3------4-----4--4-----4--4--4--4----------------------|
G|--2--2-----2--2--2------4-----4--4-----4--4--4--4----------------------|
D|--0--0-----0--0--0------2-----2--2-----2--2--2--2----------------------|
A|-----------------------------------------------------------------------|
E|-----------------------------------------------------------------------|

Intro
There is nothing better than being with you
D                B5
And I'm feeling so nice

A/F#         F#m
Case you don't understand
There's somethin' else I meant to tell ya

A/F#         F#m           D           B5
There is nothing better than being with you
And I'm feeling so nice
A/F#         F#m           D           B5
There is nowhere better than here with you
And it's feeling so nice

A/F#         F#m
You haven't got a clue
It's all that I can do to hide it

A/F#         F#m           D           B5
There is nothing better than being with you
And I'm feeling so nice
A/F#         F#m           D           B5
There is nowhere better than here with you
And it's feeling so nice

D                B5
Did I already say?
D                B5
Coz you make me forget
D                B5
I might as well be brave and tell ya

A/F#         F#m           D           B5
There is nothing better than being with you
And I'm feeling so nice
A/F#         F#m           D           B5
There is nowhere better than here with you
And it's feeling so nice
A/F#         F#m           D           B5
There is nothing better than being with you
And I'm feeling so nice

D                B5
Yeah, I'm feeling
D                B5
Yeah, it's feeling so nice