Dustin Kensrue - I Believe Text Guitar Tab

Learn song with the online tabulature player
Dustin Kensrue - I Believe
Album: Please Come Home

There MIGHT be one or two parts that sound incorrect, but they aren't :]. If you think 
you're wrong. Strumming isn't to difficult, just listen.


CAPO on 2nd fret

Intro/Verse

e-----------------------------------------------------------------------|
B-------------------------------------------4---------------------------|
G-------------------------------------------4-------4-----6-------------|
D--------------4----6-----------------4-----4-------0-----0-------------| x 2
A---2----4-----0----0-----2----4------4-----2-------------------2----4--|
E---0----0----------------0----0------2-------------------------0----0--|


Chorus

e-----------------------------------------------------------------|
B-----------------------------------------------------------------|
G----------------------1-----6------1-----8-----------------------|
D---6------------------2-----7------2-----9-----------------------|
A---4------6------7----2-----7------2-----9-----------------------|
E----------4------5----------5------------7-----------------------|

e-----------------------------------------------------------------|
B-----------------------------------------------------------------|
G----------------------1-----6-------8----------------------------|
D---6------------------2-----7-------9----------------------------|
A---4------6------7----2-----7-------9----------------------------|
E----------4------5----------5-------7----------------------------|


Verse

e-----------------------------------------------------------------------|
B-------------------------------------------4---------------------------|
G-------------------------------------------4-------4-----6-------------|
D--------------4----6-----------------4-----4-------0-----0-------------| x 2
A---2----4-----0----0-----2----4------4-----2-------------------2----4--|
E---0----0----------------0----0------2-------------------------0----0--|


Chorus

e------------------------------------------------------------------|
B------------------------------------------------------------------|
G----------------------1-----6------1-----8------------------------|
D---6------------------2-----7------2-----9------------------------|
A---4------6------7----2-----7------2-----9------------------------|
E----------4------5----------5------------7------------------------|

e------------------------------------------------------------------|
B------------------------------------------------------------------|
G----------------------1-----6-------8------1----------------------|
D---6------------------2-----7-------9------2----------------------|
A---4------6------7----2-----7-------9------2----------------------|
E----------4------5----------5-------7-----------------------------|


Bridge


e-------------------------------------------------------------------|
B-------------------------------------------------------------------|
G----------8-----6----6------------8------------8-------------------|
D----4-----9-----6----7------4-----9-----11-----9-------------------|
A----4-----9-----4----7------4-----9-----9------9-------------------|
E----2-----7----------5------2-----7------------7-------------------|


The final chorus isn't the same, it's somewhat like the intro/verse, with some minor differences.

End Chorus

e-------------------------      -----------|
B-------------------------      -----------|
G-------------------------      ---1-------|
D--------------4----6----- x 2  ---2-------|
A---2----4-----0----0-----      ---2-------|
E---0----0----------------      -----------|

- Ryan