The Eagles - Witchy Woman Chords

 
3 fr
         
         
         
         
         
1
3
4
1
1
1
5 fr
         
         
         
         
         
X
X
1
3
4
2
3 fr
         
         
         
         
         
X
X
3
1
1
1
         
         
         
         
         
1
X
2
3
4
         
         
         
         
         
3
1
X
X
X
         
         
         
         
         
2
1
3
4

7 fr
         
         
         
         
         
X
4
3
1
2
X
10 fr
         
         
         
         
         
X
1
3
4
2
1
         
         
         
         
         
X
X
2
1
1
5 fr
         
         
         
         
         
X
1
3
1
2
1
5 fr
         
         
         
         
         
X
1
X
2
4
3
5 fr
         
         
         
         
         
X
1
3
1
2
4
3 fr
         
         
         
         
         
X
2
1
3
1
4
10 fr
         
         
         
         
         
1
3
X
1
4
1

10 fr
         
         
         
         
         
1
3
1
1
4
1
10 fr
         
         
         
         
         
1
3
1
1
1
1
12 fr
         
         
         
         
         
X
X
1
3
2
2
5 fr
         
         
         
         
         
X
X
         
         
         
         
         
X
X
2
3
1
5 fr
         
         
         
         
         
X
1
3
4
2
1
10 fr
         
         
         
         
         
X
X
1
1
1
5 fr
         
         
         
         
         
X
X
3
2
1
2 fr
         
         
         
         
         
X
4
3
1
2
X
10 fr
         
         
         
         
         
1
3
4
1
1
1

12 fr
         
         
         
         
         
X
X
1
3
4
2
         
         
         
         
         
X
3
2
1
3 fr
         
         
         
         
         
X
1
2
3
4
1
8 fr
         
         
         
         
         
1
3
4
2
1
1
3 fr
         
         
         
         
         
X
1
X
3
4
1
5 fr
         
         
         
         
         
3
2
1
1
1
4
10 fr
         
         
         
         
         
X
X
1
3
4
3

12 fr
         
         
         
         
         
X
4
3
1
2
1
3 fr
         
         
         
         
         
X

B

variations
         
         
         
         
         
X
1
2
3
4
1
6 fr
         
         
         
         
         
1
3
4
2
1
1
         
         
         
         
         
X
1
4
4
4
X
         
         
         
         
         
X
1
X
3
4
1
3 fr
         
         
         
         
         
3
2
1
1
1
4
8 fr
         
         
         
         
         
X
X
1
3
4
3

10 fr
         
         
         
         
         
X
4
3
1
2
1
         
         
         
         
         
X
X
2
1
3
5 fr
         
         
         
         
         
X
1
3
1
4
1
5 fr
         
         
         
         
         
X
X
1
3
1
10 fr
         
         
         
         
         
1
3
1
2
1
1
5 fr
         
         
         
         
         
X
1
3
3
3
4
7 fr
         
         
         
         
         
4
3
1
1
1
2

10 fr
         
         
         
         
         
1
3
1
2
X
1
10 fr
         
         
         
         
         
1
3
1
2
4
1
12 fr
         
         
         
         
         
X
X
1
3
2
4
         
         
         
         
         
1
3
4
2
1
1
5 fr
         
         
         
         
         
X
4
3
1
2
1
3 fr
         
         
         
         
         
X
X
1
2
4
3
         
         
         
         
         
X
X
3
2
1
1
8 fr
         
         
         
         
         
X
1
3
3
3
1
10 fr
         
         
         
         
         
4
3
1
1
1
X

10 fr
         
         
         
         
         
3
2
1
1
1
4
         
         
         
         
         
1
3
2
X
X
3 fr
         
         
         
         
         
X
X
1
3
1
4
7 fr
         
         
         
         
         
X
2
1
1
4
3
8 fr
         
         
         
         
         
X
1
3
3
3
3
10 fr
         
         
         
         
         
4
3
1
1
1
1
         
         
         
         
         
X
X
1
3
2
2 fr
         
         
         
         
         
X
4
3
1
2
1
5 fr
         
         
         
         
         
X
1
2
3
4
1
5 fr
         
         
         
         
         
X
1
4
4
4
X
7 fr
         
         
         
         
         
4
3
1
1
1
X
7 fr
         
         
         
         
         
3
2
1
1
1
4

10 fr
         
         
         
         
         
1
3
4
2
1
1
12 fr
         
         
         
         
         
X
X
1
3
4
3
5 fr
         
         
         
         
         
X
X
No chord
    
Standard guitar tuning:
E
A
D
G
B
E
No capo

Intro

    Gm                    Dm7  Dm          Dm7  Dm          C   B   Gm
e|--3----------3-----------1---1---1--------1---1---1-----------------3---|
B|--3----------3-----------1---3---3--------1---3---3--------5---3----3---|
G|--3----------3-----------2---2---2--------2---2---2--------5---3----3---|
D|--5----------5-----------0---0---0--------0---0---0--------5---3----5---|
A|-------5--5-------5--5-------------------------------------3---1----5---|
E|-------3--3-------3--3----------------------------------------------3---|
    Gm                    Dm7  Dm          Dm7  Dm           C   B   C
e|--3----------3-----------1---1---1--------1---1---1---------------------|
B|--3----------3-----------1---3---3--------1---3---3--------5---3----5---|
G|--3----------3-----------2---2---2--------2---2---2--------5---3----5---|
D|--5----------5-----------0---0---0--------0---0---0--------5---3----5---|
A|-------5--5-------5--5-------------------------------------3---1----3---|
E|-------3--3-------3--3--------------------------------------------------|
     Gm
e|------------------------------------|
B|-----------3-x--5-p--3-----x--------|
G|-----------3-x--5-p--3-----x--------|
D|---3-/--5----x-------------x--------|
A|-------------x-------------x--------|
E|---1-/--3----x-------------x--------|   x4
GmRaven hair and D7ruby lips, Sparks fly from her fCingBer tGmips GmEchoed voices D7in the night, She's a restless spirit on an eCndlBess Gmflight GmWooo hooo wD7itcFhy wD7oman, sD7ee Fhow D7high she fCliesB Gm Woo hoo witchy woman she got the moon in her eye

Gm D7

She held me spellbound in the night, Dancing shadows and firelight Crazy laughter in another room And she drove herself to madness, with a silver spoon Woo hoo witchy woman see how high she flies Woo hoo witchy woman she got the moon in her eye

Gm F6 D7/F

Solo

Gm C B Gm Gm B C Gm

GmWaaahh.F6... D7/F

Gm D7 F D7 D7 F D7 C B Gm

Gm D7 F D7 D7 F D7 C B C

GmWell I know you want a lover, Let me tell your brother, She's been Csleeping in the Bdevil's Gmbed GmAnd there's some rumors going round, someone's underground She can Brock you in the nCight time 'til your sGmkin turns red GmWoo hoo D7witchy woman, see how high she Gmflies GmWoo hoo D7witchy woman, she got the moon in her Gmeye

D7 Gm

F D C D C B C B F Gm

chords:
    Gm      D7 F    D7/F    F6    F     D     C     B
e|---0-------2-------2-------1----------------------------|
B|---3-------1-------1-------3-----10----7-----5-----3----|
G|---3-------2-------2-------2-----10----7-----5-----3----|
D|---0-------3-------0-------0-----10----7-----5-----3----|
A|---2---------------0-------3-----8-----5-----3-----1----|
E|---3---------------2-------1----------------------------|
    Gm            D7                                              Gm
e|---0-----0-----2-2----2------2---2---2---2---x---x---x-----------3----|
B|---3-----3-----1-1----1------1---1---1---1---x---x---x-----------3----|
G|---3-----0-----2-2----2------2---2---2---2---x---x---x-----------3----|
D|---0-----0-----3-0----0------3---0---x---0---x---x---x-----------5----|
A|---2-----2---------------------------3-------3---1---3---1-------5----|
E|---3-----3---------------------------------------------------1---3----|
     1  2  3  4  1  2  3  4

Gm F6

e|---0-----0-----1---------| B|---3-----3-----3---------| G|---3-----0-----2---------| D|---0-----0-----0---------| A|---2-----2-----3---------| E|---3-----3-----1---------|
     1  &  2  &  3  &  4  &  1  &  2  &  3  &  4  &

F6 D7/F Gm

e|---1--------2-----------2--2--2--2-----3---------| B|---3--------1-----------1--1--1--1-----3---------| G|---2--------2-----------2--2--2--2-----3---------| D|---0--------0-----------0--0--0--0-----5---------| A|---3--------0-----------0--0--0--0-----5---------| E|---1--------2-----------0--2--0--2-----3---------|
     D7                                    Gm
e|---2---2---2---2-----2---2---x---x---x---3----|
B|---1---1---1---1-----1---1---x---x---x---3----|
G|---2---2---2---2-----2---2---x---x---x---3----|
D|---3---0---x---0-----x---x---x---x---x---5----|
A|-----------3---------3---1---3---1-------5----|
E|-------------------------------------1---3----|
| / slide up | \ slide down | h hammer-on | p pull-off | ~ vibrato | + harmonic | x Mute note | b Bend | pb Pre-bend | br Bend release | pbr Pre-bend release | brb Bend release bend

All Content on this page is the property of the copyright owner of the original composition.