Ebba Grön - Mamma Pappa Barn Text Guitar Tab

Learn song with the online tabulature player
Tabbed by: Johnka
Added: 29 june -07
Mail:Johnuddman@hotmail.com

    Intro: 2x
G|----------------------------------|
D|----------------------------------|
A|---55-33-22-00-33-22-00-23--------|
E|----------------------------------|

    Verse: 4x
G|----------------------------------|
D|----------------------------------|
A|--------------88-1010-------------|(ten)
E|--1010-1212-----------88x8x5-8----|(ten) (twelve)


    Intro: 4x
G|----------------------------------|
D|----------------------------------|
A|---55-33-22-00-33-22-00-23--------|
E|----------------------------------|

 
   Verse: 4x
G|----------------------------------|
D|----------------------------------|
A|--------------88-1010-------------|(ten)
E|--1010-1212-----------88x8x5-8----|(ten) (twelve)


   Chorus: 2x
G|-------------------------------------------------------------------|
D|-------------------------------------------------------------------|
A|--------23-55555-78/1010101010(ten)-87-55555-32--------------------|
E|--33333------------------------------------------------------------|



This is my first tab.. write to me at my hotmail above if there is any problems ^^

Enjoy playing it! its very funny !