Echo And The Bunnymen - Crocodiles Text Guitar Tab

Learn song with the online tabulature player
G-------------------------------------|
D-------------------------------------|
A-0030---5-7--------------------------|main rhythm
E------30-----------------------------|


"i dont wanna look back"
G-------------------------------------|
D-------------------------------------|
A-------------------------------------|chorus
E-333/5--333/5--333/5-00000000000-----|

"gotta see those creeps..."
G-------------------------------------|
D-------------------------------------| x4
A-------------------------------------|
E-0---------3-2-3-0--0-0--------------|
drone out the open "e"


after "i know you know"
G-------------------------------------|
D-------------------------------------|
A-------------------------------------|
E-3-3--5-5--6-6--5-5------------------|

back to main