Ed Sheeran - One Night Text Guitar Tab

Learn the song with the online tablature player
           A         D        F
e-/---0-----0-----0-----/
B-/---0-----0-----0-----/
G-/---4-----7-----2-----/
D-/---2-----5-----0-----/
A-/---2-----5-----0-----/
D-/---2-----5-----0-----/

It kind of goes like this.
e-/------------------------------------------------------2h3p2--0--------/
B-/----------------------------------------------------------------0-----/
G-/----------------------------------------------------------------------/
D-/--------2h4---------5h7-----------0h2-----------0h2-------------------/
A-/------2-----------5-------------0-------------0-----------------------/
D-/---2------------5-------------0-------------0-------------------------/