Ed Solo And Skool Of Thought - We Play The Music Acoustic Text Guitar Tab

Learn song with the online tabulature player
Song: We Play the Music (Acoustic)
Artist: Ed Solo and the Skool of Thought
Tabber: jimmya5

http://www.myspace.com/edsoloandskoolofthought
http://www.superchargedmusic.com/

(1:12)
G|------------------------------------------------|
D|------------------------------------------------|
A|-3------------------5--3------------------------|
E|------4-----6-----3---------4-----6-----3-------|

(1:30)
G|-----------------------------|
D|-----------------------------|
A|-3-3---3----6---6----88---8--|
E|-----3---4----4---6-----6----|

G|-------------------|
D|-------------------|
A|------5------5--3--|
E|-3--6---3--6-------|


There's a couple of simple variations that can easily be found and changed.