Eddie Cochran - Somethin Else Text Guitar Tab

Learn song with the online tabulature player
Intro/Main Riff
e|--------------------------------------------------|
B|--------------------------------------------------|
G|----------------------------------------9-9-9-9-9-|
D|----------------------------------------9-9-9-9-9-|
A|----------------------------------------7-7-7-7-7-|
E|-0-3-4-555555555555-0-3-4-555555555555------------|

Verse
(Look a there)

e|------------------------------|
B|------------------------------|
G|------------------------------|
D|-7-7------7-7-----------------|
A|-7-7------7-7-----------------|
E|-5-5------5-5-----------------|