Eddie James - Freedom Text Guitar Tab

Learn song with the online tabulature player
Intro: ---------5555--------5555--------5555--------|
       ---55-----------55----------55-----------5---|
       ---------------------------------------------|
       ---------------------------------------------|
       ---------------------------------------------|
       ---------------------------------------------|

Main riff used through out the song:
       ----7-------7-------9--------5---------------|
       ----7-------7-------9--------5---------------|
       ----9-------7-------9--------5---------------|
       ----9-------9-------11-------7---------------|
       ----7-------9-------11-------7---------------|
       ----7-------7-------9--------5---------------|

Outro: ---------------------------------------------|
       ---------------------------------------------|
       ---------------------------------------------|
       ---------------------------------------------|
       ---77-----55-----99-----77-----55-----3-7----|
       ---------------------------------------------|

ejworship.org