Eddie Rabbitt - I Love A Rainy Night Text Guitar Tab

Learn song with the online tabulature player
I Love A Rainy Night
By:  Eddie Rabbitt

Key of C

1st Chorus:
C
Well I love a rainy night, I love a rainy night
									F
I love to hear the thunder, watch the lightning when it lights up the
sky
		     C
You know it makes me feel good.
C
Well I love a rainy night it's such a beautiful sight
							  F
I love to feel the rain on my face, taste the rain on my lips
		C
In the moonlit shadows.
G		    Am	     G  F		G
Shadows wash all my cares away, I wake up to a sunny day.

2nd Chorus:				Third and fourth time through:
	C		  F  G
Cause I love a rainy night		(can't you see it in my eyes)
	C		  F  G
Yeah I love a rainy night		('cause it makes me high)
	C		 F  G
Ooh I love a rainy night		(you know I do)
	C		   F     G
Yeah I love a rainy night, Ooo!  Ooo!

(1st Chorus)
(2nd Chorus)
Guitar Solo:    |---------------------------------------------8-10/12-15---|
        |--------------------------------------8-8/10----------------------|
        |-------------------------5-(5)(5)-5/9-----------------------------|
        |------------5-(5)(5)-5/7------------------------------------------|
        |-(3)(3)-5/7-------------------------------------------------------|
        |------------------------------------------------------------------|
					     B
        |-15/17-20-22-20-22-20-22-22(23)(22)-20-22-20-18-17-----------|
        |-------------------------------------------------20-17-------|
        |-----------------------------------------------------19(20)--|
        |---------------------------------------------------------17--|

	|-------------------------------------------------------------------


G		    Am	      G  F		G
Showers wash all my cares away, I wake up to a sunny day

(Chorus 2)
(Chorus 2 same as previous time)
Repeat and fade
				Jason A. Wendtland