Eddy Grant - Gimme Hope Joanna Text Guitar Tab

Learn song with the online tabulature player
Eddy Grant : Gimme Hope Joanna (BASS)
Tuning : Standard (GDAE)
Key : F
Chords : F / Bb / F / C

i tried finding a tab for this song but i couldnt find it anywhere.,. so i tabbed it.,. 
it suits u/.,., this is the bassline for the original key

this keeps on rotating till the end

G--3-3-3-3-------8-8-8-8-------3-3-3-3------10-10-10-10---------------------|
D---------------------------------------------------------------------------|
A------------1-------------6------------1-----------------8-----------------|
E----------1---1---------6---6--------1---1-------------8---8---------------|


G--3-3-3-3-------8-8-8-8-------3-3-3---10-10-10----3-3-3-3------------------|
D---------------------------------------------------------------------------|
A------------1-------------6---------------------------------1---1----------|
E----------1---1---------6---6-------1----------8----------1---1---1--------|



comments nd corrections are always welcome
ns2max@gmail.com
ns2max@hotmail.com