Editors - Fall Text Guitar Tab

Learn song with the online tabulature player
intro:
e------10xalot-------------|
b---------------11---------|
g--0---------------9-9-9---|
d--2-----------------------|
a--2-----------------------|
e--------------------------|

i wated to see x2 i wanted to see this for my self
e----------------------|
b----------------------|
g----9-----7-----5-----|
d----9-----7-----5-----|
a----7-x8--5-x8--3-x16-|
e----------------------|