Editors - Lights Chords

Main Riff
Main Riff
Main Riff
 
         
         
         
         
         
2
3
3 fr
         
         
         
         
         
X
X
2
4
1
7 fr
         
         
         
         
         
X
1
3
4
2
1
2 fr
         
         
         
         
         
X
X
1
3
4
2
3 fr
         
         
         
         
         
X
3
2
4
1
4 fr
         
         
         
         
         
X
4
3
1
2
X

12 fr
         
         
         
         
         
1
3
4
1
1
1

F

variations
         
         
         
         
         
1
3
4
2
1
1
         
         
         
         
         
X
X
3
2
1
1
6 fr
         
         
         
         
         
X
4
3
1
2
1
4 fr
         
         
         
         
         
X
X
1
2
4
3
9 fr
         
         
         
         
         
X
1
3
3
3
1
11 fr
         
         
         
         
         
4
3
1
1
1
X

11 fr
         
         
         
         
         
3
2
1
1
1
4
         
         
         
         
         
X
1
3
4
2
1
7 fr
         
         
         
         
         
1
3
4
1
1
1
         
         
         
         
         
X
1
3
4
2
X
7 fr
         
         
         
         
         
X
X
3
1
1
1
9 fr
         
         
         
         
         
X
X
1
3
4
2
11 fr
         
         
         
         
         
X
4
3
1
2
X
         
         
         
         
         
X
3
2
1
3 fr
         
         
         
         
         
X
1
2
3
4
1
8 fr
         
         
         
         
         
1
3
4
2
1
1
3 fr
         
         
         
         
         
X
1
X
3
4
1
5 fr
         
         
         
         
         
3
2
1
1
1
4
10 fr
         
         
         
         
         
X
X
1
3
4
3

12 fr
         
         
         
         
         
X
4
3
1
2
1
3 fr
         
         
         
         
         
X
         
         
         
         
         
X
1
3
2
5 fr
         
         
         
         
         
X
2
3
4
1
         
         
         
         
         
X
3
1
2
1
5 fr
         
         
         
         
         
1
1
2
3
4
1
7 fr
         
         
         
         
         
X
X
1
1
1
4
         
         
         
         
         
2
3
1
4 fr
         
         
         
         
         
X
4
3
1
2
1
7 fr
         
         
         
         
         
X
1
4
4
4
X
2 fr
         
         
         
         
         
X
X
1
2
4
3
4 fr
         
         
         
         
         
4
3
1
2
1
7 fr
         
         
         
         
         
X
1
3
3
3
1

9 fr
         
         
         
         
         
4
3
1
1
1
X
9 fr
         
         
         
         
         
3
2
1
1
1
4
12 fr
         
         
         
         
         
1
3
4
2
1
1
4 fr
         
         
         
         
         
X
         
         
         
         
         
1
3
4
2
1
1
5 fr
         
         
         
         
         
X
4
3
1
2
1
3 fr
         
         
         
         
         
X
X
1
2
4
3
         
         
         
         
         
X
X
3
2
1
1
8 fr
         
         
         
         
         
X
1
3
3
3
1
10 fr
         
         
         
         
         
4
3
1
1
1
X

10 fr
         
         
         
         
         
3
2
1
1
1
4
No chord
    
Standard guitar tuning:
E
A
D
G
B
E
No capo
Verse1=

Em F Bm C

e|-------|-------|-------|-------| B|-------|-------|-------|-------| G|-------|-------|2-2-2-2|0-0-0-0| D|5-5-5-5|7-7-7-7|0-0-0-0|2-2-2-2| A|7-7-7-7|9-9-9-9|2-2-2-2|3-3-3-3| E|-------|-------|-------|-------|
   Em       F      Bm     C
e|-------|-------|-------|-------|
B|-------|-------|-------|-------|
G|-------|-------|2-2-2-2|0-0-0-0|
D|5-5-5-5|7-7-7-7|0-0-0-0|2-2-2-2|
A|7-7-7-7|9-9-9-9|2-2-2-2|3-3-3-3|
E|-------|-------|-------|-------|
   Em       F      Bm     C
e|-------|-------|-------|-------|
B|-------|-------|-------|-------|
G|-------|-------|2-2-2-2|0-0-0-0|
D|5-5-5-5|7-7-7-7|0-0-0-0|2-2-2-2|
A|7-7-7-7|9-9-9-9|2-2-2-2|3-3-3-3|
E|-------|-------|-------|-------|
    Em       F      Bm     C
e|-------|-------|-------|-------|
B|-------|-------|-------|-------|
G|-------|-------|2-2-2-2|0-0-0-0|
D|5-5-5-5|7-7-7-7|0-0-0-0|2-2-2-2|
A|7-7-7-7|9-9-9-9|2-2-2-2|3-3-3-3|
E|-------|-------|-------|-------|
CHORUS=

D/A C D/A C

e|-------|-------|-------|-------| B|3-3-3-3|-------|3-3-3-3|-------| G|0-0-0-0|0-0-0-0|0-0-0-0|0-0-0-0| D|4-4-4-4|2-2-2-2|4-4-4-4|2-2-2-2| A|5-5-5-5|3-3-3-3|5-5-5-5|3-3-3-3| E|5-5-5-5|-------|5-5-5-5|-------|
  D/A       C       D/A       Em
e|-------|-------|-------|-------|
B|3-3-3-3|-------|3-3-3-3|-------|
G|0-0-0-0|0-0-0-0|0-0-0-0|-------|
D|4-4-4-4|2-2-2-2|4-4-4-4|5-5-5-5|
A|5-5-5-5|3-3-3-3|5-5-5-5|7-7-7-7|
E|5-5-5-5|-------|5-5-5-5|-------|
FILL IN=

Em F Bm C

e|-------|-------|-------|-------| B|-------|-------|-------|-------| G|-------|-------|2-2-2-2|0-0-0-0| D|5-5-5-5|7-7-7-7|0-0-0-0|2-2-2-2| A|7-7-7-7|9-9-9-9|2-2-2-2|3-3-3-3| E|-------|-------|-------|-------|
   Em       F      Bm     C
e|-------|-------|-------|-------|
B|-------|-------|-------|-------|
G|-------|-------|2-2-2-2|0-0-0-0|
D|5-5-5-5|7-7-7-7|0-0-0-0|2-2-2-2|
A|7-7-7-7|9-9-9-9|2-2-2-2|3-3-3-3|
E|-------|-------|-------|-------|
   Em       F      Bm     C
e|-------|-------|-------|-------|
B|-------|-------|-------|-------|
G|-------|-------|2-2-2-2|0-0-0-0|
D|5-5-5-5|7-7-7-7|0-0-0-0|2-2-2-2|
A|7-7-7-7|9-9-9-9|2-2-2-2|3-3-3-3|
E|-------|-------|-------|-------|
    Em       F      Bm     C
e|-------|-------|-------|-------|
B|-------|-------|-------|-------|
G|-------|-------|2-2-2-2|0-0-0-0|
D|5-5-5-5|7-7-7-7|0-0-0-0|2-2-2-2|
A|7-7-7-7|9-9-9-9|2-2-2-2|3-3-3-3|
E|-------|-------|-------|-------|
VERSE2=

Em F Bm C

e|-------|-------|-------|-------| B|-------|-------|-------|-------| G|-------|-------|2-2-2-2|0-0-0-0| D|5-5-5-5|7-7-7-7|0-0-0-0|2-2-2-2| A|7-7-7-7|9-9-9-9|2-2-2-2|3-3-3-3| E|-------|-------|-------|-------|
   Em       F      Bm     C
e|-------|-------|-------|-------|
B|-------|-------|-------|-------|
G|-------|-------|2-2-2-2|0-0-0-0|
D|5-5-5-5|7-7-7-7|0-0-0-0|2-2-2-2|
A|7-7-7-7|9-9-9-9|2-2-2-2|3-3-3-3|
E|-------|-------|-------|-------|
   Em       F      Bm     C
e|-------|-------|-------|-------|
B|-------|-------|-------|-------|
G|-------|-------|2-2-2-2|0-0-0-0|
D|5-5-5-5|7-7-7-7|0-0-0-0|2-2-2-2|
A|7-7-7-7|9-9-9-9|2-2-2-2|3-3-3-3|
E|-------|-------|-------|-------|
    Em       F      Bm     C
e|-------|-------|-------|-------|
B|-------|-------|-------|-------|
G|-------|-------|2-2-2-2|0-0-0-0|
D|5-5-5-5|7-7-7-7|0-0-0-0|2-2-2-2|
A|7-7-7-7|9-9-9-9|2-2-2-2|3-3-3-3|
E|-------|-------|-------|-------|
CHORUS=

D/A C D/A C

e|-------|-------|-------|-------| B|3-3-3-3|-------|3-3-3-3|-------| G|0-0-0-0|0-0-0-0|0-0-0-0|0-0-0-0| D|4-4-4-4|2-2-2-2|4-4-4-4|2-2-2-2| A|5-5-5-5|3-3-3-3|5-5-5-5|3-3-3-3| E|5-5-5-5|-------|5-5-5-5|-------|
  D/A       C       D/A       Em
e|-------|-------|-------|-------|
B|3-3-3-3|-------|3-3-3-3|-------|
G|0-0-0-0|0-0-0-0|0-0-0-0|-------|
D|4-4-4-4|2-2-2-2|4-4-4-4|5-5-5-5|
A|5-5-5-5|3-3-3-3|5-5-5-5|7-7-7-7|
E|5-5-5-5|-------|5-5-5-5|-------|

Middle 12

e|-------|-------|--------|-------|
B|-------|-------|--------|-------|
G|-------|-------|2-------|0------|
D|5------|7------|0-------|2------|
A|7------|9------|2-------|3------|
E|-------|-------|--------|-------|
e|-------|-------|--------|-------|
B|-------|-------|--------|-------|
G|-------|-------|2-------|0------|
D|5------|7------|0-------|2------|
A|7------|9------|2-------|3------|
E|-------|-------|--------|-------|
  E                                   Em
e|-----------|-----------|-----------|-------|
B|-----------|-----------|-----------|-------|
G|12-12-12-12|12-12-12-12|12-12-12-12|-------|
D|12-12-12-12|12-12-12-12|12-12-12-12|5-5-5-5|
A|12-12-12-12|12-12-12-12|12-12-12-12|7-7-7-7|
E|12-12-12-12|12-12-12-12|12-12-12-12|-------|
FILL IN=

Em F Bm C

e|-------|-------|-------|-------| B|-------|-------|-------|-------| G|-------|-------|2-2-2-2|0-0-0-0| D|5-5-5-5|7-7-7-7|0-0-0-0|2-2-2-2| A|7-7-7-7|9-9-9-9|2-2-2-2|3-3-3-3| E|-------|-------|-------|-------|
   Em       F      Bm     C
e|-------|-------|-------|-------|
B|-------|-------|-------|-------|
G|-------|-------|2-2-2-2|0-0-0-0|
D|5-5-5-5|7-7-7-7|0-0-0-0|2-2-2-2|
A|7-7-7-7|9-9-9-9|2-2-2-2|3-3-3-3|
E|-------|-------|-------|-------|
   Em       F      Bm     C
e|-------|-------|-------|-------|
B|-------|-------|-------|-------|
G|-------|-------|2-2-2-2|0-0-0-0|
D|5-5-5-5|7-7-7-7|0-0-0-0|2-2-2-2|
A|7-7-7-7|9-9-9-9|2-2-2-2|3-3-3-3|
E|-------|-------|-------|-------|
    Em       F      Bm     C
e|-------|-------|-------|-------|
B|-------|-------|-------|-------|
G|-------|-------|2-2-2-2|0-0-0-0|
D|5-5-5-5|7-7-7-7|0-0-0-0|2-2-2-2|
A|7-7-7-7|9-9-9-9|2-2-2-2|3-3-3-3|
E|-------|-------|-------|-------|
CHORUS=

D/A C D/A C

e|-------|-------|-------|-------| B|3-3-3-3|-------|3-3-3-3|-------| G|0-0-0-0|0-0-0-0|0-0-0-0|0-0-0-0| D|4-4-4-4|2-2-2-2|4-4-4-4|2-2-2-2| A|5-5-5-5|3-3-3-3|5-5-5-5|3-3-3-3| E|5-5-5-5|-------|5-5-5-5|-------|
  D/A       C       D/A       Em
e|-------|-------|-------|-------|
B|3-3-3-3|-------|3-3-3-3|-------|
G|0-0-0-0|0-0-0-0|0-0-0-0|-------|
D|4-4-4-4|2-2-2-2|4-4-4-4|5-5-5-5|
A|5-5-5-5|3-3-3-3|5-5-5-5|7-7-7-7|
E|5-5-5-5|-------|5-5-5-5|-------|
LYRICS

Verse1

EmI STILL LFOVE THE BmLIGHT OH CBABY EmIT KEEPS ME FAWAKE BUTBm I DON'T CMIND EmEVERYFTHING I'VE BmALWAYS CWANTED EmIS RIGHT FHERE BUT BmSOON IT CWON'T BE

Chorus

D/Aaaahhhh CIF FORTUNE FAVOURS THE D/ABRAVE I AM AS CPOOR A FOOL AS THEY D/ACOME I GOT A CMILLION THINGS TO SAY I GOT A D/AMILLION THINGS TEmO

F

Verse2

EmI STILL LFOVE THE BmLIGHT OH CBABY EmIT KEEPS ME FAWAKE BUTBm I DON'T CMIND EmEVERYFTHING I'VE BmALWAYS CWANTED EmIS RIGHT FHERE BUT BmSOON IT CWON'T BE

Chorus

D/Aaaahhhh CIF FORTUNE FAVOURS THE D/ABRAVE I AM AS CPOOR A FOOL AS THEY D/ACOME I GOT A CMILLION THINGS TO SAY I GOT A D/AMILLION THINGS TO

Middle 12

REST FOR 8 BARS THEN): EI STILL LOVE THE LIGHT OH BABY EI STILL LOVE THE LIGHT OH BABY EI STILL LOVE THE LIGHT OH BABY

F

Chorus

D/Aaaahhhh CIF FORTUNE FAVOURS THE D/ABRAVE I AM AS CPOOR A FOOL AS THEY D/ACOME I GOT A CMILLION THINGS TO D/ASAY I GOT A MILEmLION THINGS TO D/Aaaahhhh CIF FORTUNE FAVOURS THE D/ABRAVE I AM AS CPOOR A FOOL AS THEY D/ACOME I GOT A CMILLION THINGS TO D/ASAY I GOT A MILEmLION THINGS TO

All Content on this page is the property of the copyright owner of the original composition.